Bruno Mars - Grenade tab

"Grenade" - Bruno Mars

-------------------------------------------------------------------------------

Tabbed by: Anthony R
Email: anthonymr7@yahoo.com

Tuning: Standard

e|---------------------------------------------------------------------------|
B|------6------6------6------------5-----5-----5-----------------------------|
G|-------7------7------7----(x2)----6-----6-----6----(x2)--------------------|
D|--------7------7-------------------7-----7---------------------------------|
A|---------------------------------------------------------------------------|
E|---------------------------------------------------------------------------|

(Repeat as desired ^^^)
(If you want to follow along with his voice...)

what you don't understand is...("I'd catch" are the first two notes)

e|---------------------------------------------------------------------------|
B|--10-10--10-11p10-----------------------10---------------13-11-10h11p10----|
G|-------12--------10-------12-12-12-10-12--10--------10-10--------------10--|
D|-------------------12-----------------------12--------------------------12-|
A|---------------------------------------------------------------------------|
E|---------------------------------------------------------------------------|

e|---------------------------------------------------------------------------|
B|--------13-11-10h11p10---------------10------------------------------------|
G|---10-10--------------10---------------12-10--10-12------------------------|
D|------------------------12------------------12-----------------------------|
A|---------------------------------------------------------------------------|
E|---------------------------------------------------------------------------|

e|-------------------------------------10-10---------------------------------|
B|--------10-10-10-------------13-13-13-----10------------------10-----------|
G|---10-12--------12-10-12--------------------12--------12-12-10----12-10-10-|
D|------------------------10-10-----------------------------------12---------|
A|---------------------------------------------------------------------------|
E|---------------------------------------------------------------------------|

e|---------------------------------------------------------------------------|
B|---------------------------------------------------------------------------|
G|----12-12-10-9-------------------------------------------------------------|
D|--------------12-----------------------------------------------------------|
A|---------------------------------------------------------------------------|
E|---------------------------------------------------------------------------|

This is all I'm really (attention wise) capable of doing for now, and it can
pretty much be reused the entire song. The last part "but you won't do the 
same"...I wasn't too sure about. If you know any more of the song, feel free
to comment or email me, I'll probably respond back. This was my first tab so
I hope you enjoy :)
Tap to rate this tab
 
# A B C D E F G H I J K L M N O P Q R S T U V W X Y Z