Song name
# A B C D E F G H I J K L M N O P Q R S T U V W X Y Z

Bruno Mars - Just The Way You Are tab

 F

E||--1--1---------------------|
B||--1-----1--1-----------1--1|
G||--2-----------3--2--3------|  
D||--3------------------------|
A||--3------------------------|
E||--1------------------------|

     Dm

E||--1--1---------------------|
B||--3-----1--1-----------1--1|
G||--2-----------3--2--3------|  
D||--0------------------------|
A||--x------------------------|
E||---------------------------|

     Bb

E||--1--1---------------------|
B||--3-----1--1-----------1--1|
G||--3-----------3--2--3------|  
D||--3------------------------|
A||--1------------------------|
E||--1------------------------|

     F

E||--1--1---------------------|
B||--1-----1--1-----------1--1|
G||--2-----------3--2--3------|  
D||--3------------------------|
A||--3------------------------|
E||--1------------------------|
Tap to rate this tab
 
# A B C D E F G H I J K L M N O P Q R S T U V W X Y Z