Song name
# A B C D E F G H I J K L M N O P Q R S T U V W X Y Z

Bruno Mars - Liquor Store Blues tab

|--9-9p7--9p7-------------------------------|
|--------------9~--9-9p7----7-7---7---------|
|-------------------------9-----9---9-8~----|
|-----------------------------------------6-|
|-------------------------------------------|
|-------------------------------------------|

|--9-9p7--9p7-----------------------7------|
|--------------9~--9-9p7----7-7---7----9~--|
|-------------------------9-----9----------|
|------------------------------------------|
|------------------------------------------|
|------------------------------------------|

...
other half comming
Tap to rate this tab
 
# A B C D E F G H I J K L M N O P Q R S T U V W X Y Z