Song name
# A B C D E F G H I J K L M N O P Q R S T U V W X Y Z

Bruno Mars - Just The Way You Are tab

Bruno Mars - Just The Way you ARe

You'll find a "how to play" video on my youtube channel ( ipsaous ).

Vous trouverez une vidéo explicative sur ma chaîne youtube ( Ipsaous ).
Voila j'espère que cette tab vous sera utile.

Capo 5


Intro


e----------------------------|
B----8--6--5--5--6-----------|
G----5--5--5--5--5-----------|
D----5--5--5--5--5--    X5-6-| times :D
A----------------------------|
E----------------------------|


Chords :

C - Am - F for the all song ! :)


Picking chorus

C ( Do )

e------------------------------------------|
B----1----------1------------3-------------|
G--------0----------0------------0---------|
D-----------2-----------2------------------|        X2
A----3-----------------------3-------------|
E------------------------------------------|

Am ( La mineur )

e------------------------------------------|
B----1----------1------------3-------------|
G--------2----------2------------0---------|
D-----------2-----------2------------------|        X2
A----0-----------------------0-------------|
E------------------------------------------|


F ( Fa )

e------------------------------------------|
B----1----------1------------1-------------|
G--------2----------2------------2---------|
D-----------3-----------3------------------|        X2
A------------------------------------------|
E----1-----------------------1-------------|


Rythmique ( Rythm for english : B = Down and H = Up ) :

B B HBB HBH

Ou

B HBB HBB HBH

Bye ;)
Tap to rate this tab
 
# A B C D E F G H I J K L M N O P Q R S T U V W X Y Z