Bruno Mars - The Lazy Song tab

e ----------------------------------------------|
B ---9---9--------11---11--------9---9---9---9--|
G ---8---8--------10---10--------8---8---8---8--|   (x8)
D ----------------------------------------------|
A -------------9----------------7---------------|
E -7--------------------------------------------|


e ------------------------------------------------|
B ---5---5-------7---7-------8---8------9---------|
G ---4---4-------6---6-------7---7------8---------|
D ------------------------------------------------|
A -3-----------5------------6-----------7---------|
E ------------------------------------------------|

Oh yes I said it, I said it, I said it 'cause I can...

(Repeat from top all over again)
Tap to rate this tab
 
# A B C D E F G H I J K L M N O P Q R S T U V W X Y Z