Song name
# A B C D E F G H I J K L M N O P Q R S T U V W X Y Z

Bruno Mars - Just The Way You Are tab

This plays at beginning of song.

e 6-6-6------------------------|
A ------5-5-5-5-----3--22-3-55-|
D -----------------------------|
G -----------------------------|
B -----------------------------|
E -----------------------------|

Main track
e ---6--8--10-----6---8---10--8---6-6--8--6----6-6--8--10--8-8--11-10--6-8-5-|
A 5-5---------5-5---------------------------5--------------------------------|
D ---------------------------------------------------------------------------|
G ---------------------------------------------------------------------------|
B ---------------------------------------------------------------------------|
E ---------------------------------------------------------------------------|
Tap to rate this tab
 
# A B C D E F G H I J K L M N O P Q R S T U V W X Y Z