Song name
# A B C D E F G H I J K L M N O P Q R S T U V W X Y Z

Bruno Mars - The Lazy Song tab

-----------------------------------------------------------------------------
			     THE LAZY SONG - Bruno Mars
-----------------------------------------------------------------------------
Tabbed by: Raul Ilbi
Email: raulil@hotmail.com

Tuning: Standart


This is my first tab so be gentle:) I tabbed it because I didn't find any tab witch was
like the song..
I think this is pretty accurate. if it isn't then you can email me !



Today I feel like not doing anything...
e|------8--X--8------------X--------------X-----------X------------------|
B|------8--X--8--------12--X--12------10--X--10---10--X--10--------------|
G|------9--X--9--------12--X--12------10--X--10---10--X--10--------------| x3
D|-----10--X--10-------12--X--12------10--X--10---10--X--10--------------|
A|-----10--X--10----10-----X--------8-----X-----------X------------------|
E|--8------X---------------X--------------X-----------X------------------|


Cause today i swear i'm not doing anything.
e|------8--X--8-----------X--------------X------------------------------|
B|------8--X--8--------9--X--9-------10--X--10---10---------------------|
G|------9--X--9--------9--X--9-------10--X--10---10---------------------| x1
D|-----10--X--10-------9--X--9-------10--X--10---10---------------------|
A|-----10--X--10-----7----X--------8-----X------------------------------|
E|--8------X--------------X--------------X------------------------------|


I'm gonna kick my feet up...
e|------8--X--8------------X--------------X-----------X------------------|
B|------8--X--8--------12--X--12------10--X--10---10--X--10--------------|
G|------9--X--9--------12--X--12------10--X--10---10--X--10--------------| x4
D|-----10--X--10-------12--X--12------10--X--10---10--X--10--------------|
A|-----10--X--10----10-----X--------8-----X-----------X------------------|
E|--8------X---------------X--------------X-----------X------------------|


Oh Oh
Yes I said it I said it I said it cause I can
e|-----5--X--5--------7--X--7-----------X------------------------------|
B|-----6--X--6--------8--X--8-------10--X--10---12---------------------|
G|-----7--X--7--------9--X--9-------10--X--10---12---------------------| x1
D|-----7--X--7--------9--X--9-------10--X--10---12---------------------|
A|--5-----X--------7-----X--------8-----X------------------------------|
E|--------X--------------X--------------X------------------------------|



and so on and on... thats all chords you need except for this part where  the  song goes 
different, where he sings "No I ain't gonna comb my hair, cause I ain't going anywhere..."
Tap to rate this tab
 
# A B C D E F G H I J K L M N O P Q R S T U V W X Y Z