Song name
# A B C D E F G H I J K L M N O P Q R S T U V W X Y Z

Bruno Mars - The Lazy Song tab

The Lazy Song 
Bruno Mars


These three parts are the song I think, I watched a few guitar 
covers on youtube so if they were right then these parts are right
just listen to the song for when to play the parts..


Part 1
e|-----7--x--7-------x----------x---------x---------------------|
B|-----7--x--7----11-x--11----9-x--9----9-x--9------------------|
G|-----8--x--8----11-x--11----9-x--9----9-x--9------------------|   
D|--------x-------11-x--11----9-x--9----9-x--9------------------|
A|--------x-----9----x------7---x---------x---------------------| 
E|---7----x----------x----------x---------x---------------------|


Part 2 
e|-----7--x--7------x-----------x-------------------------------|
B|-----7--x--7----8-x--8------9-x-9--9--------------------------|
G|-----8--x--8----6-x--6------9-x-9--9--------------------------|
D|--------x-------8-x--8------9-x-9--9--------------------------|
A|--------x-----6---x-------7---x----7--------------------------|
E|---7----x---------x-----------x-------------------------------|


Part 3
e|-----4--x--4-----2--x--2------4--x--4---4--x--4---------------|
B|-----5--x--5-----2--x--2------4--x--4---4--x--4---------------|
G|-----6--x--6-----3--x--3------4--x--4---4--x--4---------------|
D|--------x-----------x------------x---------x------------------|
A|--------x-----------x------------x---------x------------------|
E|--4-----x------2----x-------4----x---------x------------------|



Tap to rate this tab
 
# A B C D E F G H I J K L M N O P Q R S T U V W X Y Z