Guitaretab - guitar tabs
Song name
# A B C D E F G H I J K L M N O P Q R S T U V W X Y Z

Bruno Mars - It Will Rain tab

IT WILL RAIN - BRUNO MARS

I think this is a good and easy version to play it! :)

Capo 2

(Verse):

       C                                       Em
e---------------------------------------------------------------|
b---------------------------------------------------------------|
G------0--------0--------0--------0-----------------------------|
D----2---2----2---2----2---2----2---2---------------------------|
A--3--------3--------2--------2---------------------------------|
E---------------------------------------------------------------|
       If you ever leave me       baby

       C                                        Em
e---------------------------------------------------------------|
b---------------------------------------------------------------|
G------0--------0--------0--------0-----------------------------|
D----2---2----2---2----2---2----2---2---------------------------|
A--3--------3--------2--------2---------------------------------|
E---------------------------------------------------------------|
       Leave some morphine at my door

       Dm                                    Am
e---------------------------------------------------------------|
b------3--------3--------1--------1-----------------------------|
G----2---2----2---2----2---2----2---2---------------------------|
D--0--------0--------2--------2-------2-------------------------|
A---------------------------------------------------------------|
E---------------------------------------------------------------|
       Cause it would take a whole lot of medication

       Dm                                    G
e---------------------------------------------------------------|
b------3--------3-------0--------0------------------------------|
G----2---2----2---2---0---0----0---0----------------------------|
D--0--------0----------------0----------------------------------|
A---------------------------------------------------------------|
E--------------------3------------------------------------------|
       To realize what we used to have, we don't, have it anymore

There's no religion that could save me
No matter how long my knees are on the floor
So keep in mind all the sacrifices I'm makin'
Will keep you by my side
And keep you from walkin' out the door.

(Chorus):
[ Tab from: http://www.guitaretab.com/b/bruno-mars/296953.html ]
       F                   G                   Em               Am
e-----------------------------------------------------------------|
b------1--------0-----------------1-------------------------------|
G----2---2----0---0------0------2---2-----------------------------|
D--3-------------------2---2--2-----------------------------------|
A--------------------2--------------------------------------------|
E-----------3-----------------------------------------------------|
         Cause there'll be no sunlight, If I lose you baby

    F                   G                   Em               Am
e-----------------------------------------------------------------|
b------1--------0-----------------1-------------------------------|
G----2---2----0---0------0------2---2-----------------------------|
D--3-------------------2---2--2-----------------------------------|
A--------------------2--------------------------------------------|
E-----------3-----------------------------------------------------|
         There'll be no clear skies, If I lose you baby

   F                   G                   Em               Am                     Dm
e-------------------------------------------------------------------|
b------1--------0-----------------1--------1--------3--------3------|
G----2---2----0---0------0------2---2----2---2----2---2----2---2----|
D--3-------------------2---2--2--------2--------0--------0----------|
A--------------------2----------------------------------------------|
E-----------3-------------------------------------------------------|
        Just like the clouds my eyes will do the same,     If you walk away  Everyday it will

       G
e--------------------------------------------------------------------|
b-----0--------0-----------------------------------------------------|
G---0---0----0---0---------------------------------------------------|
D----------0---------------------------------------------------------|
A--------------------------------------------------------------------|
E--3-----------------------------------------------------------------|
       rain

.... the same with the following verse + chorus :)



I'll never be your mother's favorite
Your daddy can't even look me in the eye
Oooo if I was in their shoes, I'd be doin' the same thing
Sayin' there goes my little girl
Walkin' with that troublesome guy

But they're just afraid of something they can't understand
Oooo but little darlin' watch me change their minds
Yea for you I'll try I'll try I'll try I'll try
I'll pick up these broken pieces 'til I'm bleeding
If that'll make you mine

Cause there'll be no sunlight
If I lose you, baby
There'll be no clear skies
If I lose you, baby
Just like the clouds
My eyes will do the same if you walk away
Everyday, it will rain, rain, rain

Oh don't just say, goodbye
Don't just say, goodbye
I'll pick up these broken pieces 'til I'm bleeding
If that'll make it right

Cause there'll be no sunlight
If I lose you, baby
And there'll be no clear skies
If I lose you, baby
And just like the clouds
My eyes will do the same if you walk away
Everyday, it'll rain, rain, rain
Related for It Will Rain tab
It Will Rain chords by Bruno Mars