Song name
# A B C D E F G H I J K L M N O P Q R S T U V W X Y Z

Bruno Mars - Just The Way You Are tab

this will give you satisfaction of playing the intro of " just the way you are".

e-2----2-------3--2---------0--3--2-----2--------3--2----------|
b----3---3---------3-----3-----------3-----3-----------3-----3-|
g-----------2---------2-----------------------2-----------2----|
D-0----0--------------------0--0-------------------------------|
A---------------------------------2-----2----------------------|
E--------------------------------------------------------------|


e-0--3--3-----------------0-----------0------|
b----------3-----3--3--------3--3--------3---|
g-------------0--------0-----------0---------|
D----------------------------------------0---|
A-2--2---------------------------------------|
E-------3--------3--------------3------------|

if you have comments, dont hesitate to text me at 09199719236 or email me at
sonny93earth@gmail.com.

thank you. have a nice day!!!
Tap to rate this tab
 
# A B C D E F G H I J K L M N O P Q R S T U V W X Y Z