Song name
# A B C D E F G H I J K L M N O P Q R S T U V W X Y Z

Bruno Mars - Billionaire Acoustic tab

 Travie McCoy ft. Bruno Mars - Billionaire                  {JRZ}

 Intro...  
           
e-----5-5-5-5-----4-4-4-4-----9--9--9--9------7-7-7-7--\--------|
B-----5-5-5-5-----6-6-6-6-----10-10-10-10-----9-9-9-9---\-------|
G-----6-6-6-6-----4-4-4-4-----11-11-11-11-----9-9-9-9----2x-----|
D-----7-7-7-7-----4-4-4-4-----11-11-11-11-----9-9-9-9---/-------|
A-----7-7-7-7--4-----------9---------------7-----------/--------|
E--5------------------------------------------------------------|

e-----5-5-----7-7-----9--9--9--9---\--------|
B-----7-7-----9-9-----10-10-10-10---\-------|
G-----7-7-----9-9-----11-11-11-11----2x-----|
D-----7-7-----9-9-----11-11-11-11---/-------|
A--5-------7-------9---------------/--------|
E-------------------------------------------|

e-----5-5-----7-7-----12-----11----9-----7----5-5-5-5---4~------|
B-----7-7-----9-9-----14-----13----11----9----7-7-7-7---6~------|
G-----7-7-----9-9-----14-----13----11----9----7-7-7-7---4~------|
D-----7-7-----9-9-----14-----13----11----9----7-7-7-7---4~------|
A--5-------7-------12-----11-----9-----7----5-----------4~------|
E---------------------------------------------------------------|

Thank You...                                                {JRZ}
Tap to rate this tab
# A B C D E F G H I J K L M N O P Q R S T U V W X Y Z