Song name
# A B C D E F G H I J K L M N O P Q R S T U V W X Y Z

Bruno Mars - The Lazy Song tab

hope you guys like the tab.
im gonna put the lyrics of the song and the chords you need and the tab and in the
lyrics ill show witch part is the chorus,witch part is the verse and witch is the bridge for
the ones who dont know that yet.........
and the song is full of barchords and if you dont understand ell how i did click in this
lynk witha a video with lessons that first has  a cover and then teaches how to play it
http://www.youtube.com/watch?v=MfoNqEr5Lqk&feature=related


    the lazy song

                         chorus:

             1.-----------x-------------x-------------x--------x------|
             2.--------7--x--7------11--x--11------9--x--9--9--x--9---|
             3.--------8--x--8------11--x--11------9--x--9--9--x--9---| (x3)
             4.--------9--x--9------11--x--11------9--x--9--9--x--9---|
             5.-----------x------9------x-------7-----x--------x------|
             6.------7----x-------------x-------------x--------x------|


             1.---------x------------x-----------x-------|
             2.------7--x--7------8--x--8-----9--x-9--9--|
             3.------8--x--8------8--x--8-----9--x-9--9--|        (x1)
             4.------9--x--9------8--x--8-----9--x-9--9--|
             5.---------x------6-----x-----7-----x----7--|
             6.---7-----x------------x-----------x-------|


                  verse:

             1.-----------x-------------x-------------x--------x------|
             2.--------7--x--7------11--x--11------9--x--9--9--x--9---|
             3.--------8--x--8------11--x--11------9--x--9--9--x--9---| (x4)
             4.--------9--x--9------11--x--11------9--x--9--9--x--9---|
             5.-----------x------9------x-------7-----x--------x------|
             6.------7----x-------------x-------------x--------x------|


                   prechorus:
             1.--------x-------------x-------------x-------------------|
             2.----5---x--5------7---x--7-------9--x---11-----11-------|
             3.----6---x--6------8---x--8-------9--x---11-----11-------| (x1)
             4.----6---x--6------8---x--8-------9--x---11-----11-------|
             5.--4-----x------6------x-------7-----x-----------9-------|
             6.--------x-------------x-------------x-------------------|


                 bridge:

           1.----------x------------x--------------x-----------x-----|
           2.-------5--x--5------2--x--2-------6---x--6--------x-----|
           3.-------6--x--6------3--x--3-------6---x--6-----2--x--2--|
           4.-------6--x--6------4--x--4-------6---x--6-----3--x--3--|  (x1)
           5.---4------x------------x-------4------x--------4--x--4--|
           6.----------x------7-----x--------------x------7----x-----|


           1.---------x--------------x---------------x---------x-----|
           2.-----5---x--5-------2---x---2--------6--x--6---6--x--6--|
           3.-----6---x--6-------3---x---3--------6--x--6---6--x--6--| (x1)
           4.-----6---x--6-------4---x---4--------6--x--6---6--x--6--|
           5.--4------x--------------x---------4-----x---------x-----|
           6.---------x------7-------x---------------x---------x-----|

           1.----------x------------x--------------x-----------x-----|
           2.-------5--x--5------2--x--2-------6---x--6--------x-----|
           3.-------6--x--6------3--x--3-------6---x--6-----2--x--2--|
           4.-------6--x--6------4--x--4-------6---x--6-----3--x--3--|  (x1)
           5.---4------x------------x-------4------x--------4--x--4--|
           6.----------x------7-----x--------------x------7----x-----|

           1.---------x--------------x---------------x---------------|
           2.-----5---x--5-------2---x---2--------6--x--6------------|
           3.-----6---x--6-------3---x---3--------6--x--6------------| (x1)
           4.-----6---x--6-------4---x---4--------6--x--6------------|
           5.--4------x--------------x---------4-----x---------------|
           6.---------x------7-------x---------------x---------------|

           (chorus)

        Today I don't feel like doing anything


 I just wanna lay in my bed


 Don't feel like picking up my phone, so leave a message at the tone


 'Cause today I swear I'm not doing anything

             (VERSE)

I'm gonna kick my feet up then stare at the fan

Turn the TV on, throw my hand in my pants

Nobody's gon' tell me I can't


I'll be lounging on the couch just chilling in my Snuggie

Click to MTV so they can teach me how to dougie

'Cause in my castle I'm the freaking man

        (prechorus)

Oh yes, I said it, I said it

I said it 'cause I can

        (CHORUS)

Today I don't feel like doing anything

I just wanna lay in my bed

Don't feel like picking up my phone, so leave a message at the tone

'Cause today I swear I'm not doing anything

Nothing at all WOOOOHOOOOO WOOOOHOOOOO HOOOOOOO


nothing at all WOOOHOOOOO WOOOOHOOOOOO HOOOOOOOO

           (verse)

Tomorrow I'll wake up, do some P90X

Find a really nice girl, have some really nice sex

And she's gonna scream out

This is great

(Oh my god, this is great)


Yeah, I might mess around

And get my college degree

I bet my old man will be so proud of me

But sorry pops, you'll just have to wait

         (prechrus)

Oh yes, I said it, I said it

I said it 'cause I can

       (chorus)

Today I don't feel like doing anything

I just wanna lay in my bed

Don't feel like picking up my phone, so leave a message at the tone

'Cause today I swear I'm not doing anything

         (bridge)

No, I ain't gonna comb my hair

'Cause I ain't going anywhere

No, no, no, no, no, no, no, no, no

I'll just strut in my birthday suit

And let everything hang loose

Yeah, yeah, yeah, yeah, yeah

Yeah, yeah, yeah, yeah, yeah, yeah

             (chorus)

Oh, today I don't feel like doing anything

I just wanna lay in my bed

Don't feel like picking up my phone, so leave a message at the tone

'Cause today I swear I'm not doing anything


Nothing at all

Nothing at all

Nothing at all


if that is not clear enouf dor ya visit this lynk            
http://www.youtube.com/watch?v=MfoNqEr5Lqk&feature=related
Tap to rate this tab
 
# A B C D E F G H I J K L M N O P Q R S T U V W X Y Z