Song name
# A B C D E F G H I J K L M N O P Q R S T U V W X Y Z

Bruno Mars - Runaway Baby tab

Main Riff:
E|----------------------------|
B|----------------------------|
G|---8-6-8-6------------------|
D|-----------8-6-6---6-8-6----|
A|-6---------------9-------9-6|
E|----------------------------|

Chorus:
E|------------------------------------------------------------------------|
B|------------------------------------------------------------------------|
G|------------------------------------------------------------------------|
D|-9-9-9-9-9-9-9-9-8-8-8-8-8-8-8-8-13-13-13-13-13-13-13-13-6-6-6-6-6-6-6-6|
A|-9-9-9-9-9-9-9-9-8-8-8-8-8-8-8-8-13-13-13-13-13-13-13-13-6-6-6-6-6-6-6-6|
E|-7-7-7-7-7-7-7-7-6-6-6-6-6-6-6-6-11-11-11-11-11-11-11-11-4-4-4-4-4-4-4-4|

Ending:
E|--------|
B|--------|
G|---6-7-8|
D|-8------|
A|--------|
E|--------|
Tap to rate this tab
# A B C D E F G H I J K L M N O P Q R S T U V W X Y Z