Song name
# A B C D E F G H I J K L M N O P Q R S T U V W X Y Z

Bruno Mars - Liquor Store Blues tab

Chords: C#m, G#m, Amaj, Bmaj


(Intro)


(Verse)
    c#m      g#m     Amaj                                       2X's
|--4-4----4-4----5-5----------------------|
|--5-5----4-4----5-5----------------------|
|--6-6----4-4----6-6----------------------|
|--6-6----6-6----7-7----------------------| (STOP)
|--4-4----6-6----7-7----------------------|
|--x-x----4-4----5-5----------------------|
Standing at this liquor, whiskey coming thorough my pores, feeling like run this whole block


  c#m      g#m     Amaj    g#m
|--4-4----4-4----5-5----4-4-----------------|
|--5-5----4-4----5-5----4-4-----------------|
|--6-6----4-4----6-6----4-4-----------------|
|--6-6----6-6----7-7----6-6-----------------|
|--4-4----6-6----7-7----6-6-----------------|
|--x-x----4-4----5-5----4-4-----------------|
cause my jobs got me going no where, so i aint got a thing to lose,


 c#m       g#m     Amaj
|--4-4----4-4----5-----------------------|
|--5-5----4-4----5-----------------------|
|--6-6----4-4----6-----------------------| (STOP)
|--6-6----6-6----7-----------------------|
|--4-4----6-6----7-----------------------|
|--x-x----4-4----5-----------------------|
Take me to a place where i don't care, this is me and my liquor store blues


(Chorus)
 c#m      g#m      Amaj     Bmaj                            2X's
|--4-4----4-4----5-5----7-7-----------------|
|--5-5----4-4----5-5----7-7-----------------|
|--6-6----4-4----6-6----8-8-----------------|
|--6-6----6-6----7-7----9-9-----------------|
|--4-4----6-6----7-7----9-9-----------------|
|--x-x----4-4----5-5----7-7-----------------|
One shot for my pain, one drag for my sorrow, get messed up today, ill be okay tomorrow

^^  ^^  ^^  ^^  ^^ ^^  ^^  ^^  ^^  ^^  ^^  ^^  ^^  ^^  ^^  ^^  ^^  ^^  ^^ ^^  ^^  ^^  ^^  ^^  ^^
(Chords repeat through the whole song)


(solo)
|--9-9p7--9p7---------------------------------|
|--------------9~--9-9p7-----7-7---7----------|
|-------------------------9~-----9---9-8~-----|
|------------------------------------------6~-|
|---------------------------------------------|
|---------------------------------------------|

|--9-9p7--9p7------------------------7--------|
|--------------9~--9-9p7-----7-7---7----9~-7~-|
|-------------------------9~-----9------------|
|---------------------------------------------|
|---------------------------------------------|
|---------------------------------------------|

|--------------------------------------------------------------|
|--------------------------------------------------------------|
|-----------11-11h13~--11b13r11p9----9~-11--11b13r11p9-9~------|
|--11-13-14-----------------------11----------------------11p9-|
|--------------------------------------------------------------|
|--------------------------------------------------------------|

|-------------------------------------------------9----------------------------------|
|---------------------------------------------------12p9----9------------------------|
|-----------11-11h13~--11b13r11p9----9~-----11b13--------11---11b13r11p9----9--------|
|--11-13-14-----------------------11----11-------------------------------11---11~----|
|------------------------------------------------------------------------------------|
|------------------------------------------------------------------------------------|
Tap to rate this tab
# A B C D E F G H I J K L M N O P Q R S T U V W X Y Z