Song name
# A B C D E F G H I J K L M N O P Q R S T U V W X Y Z

Bruno Mars - Just The Way You Are tab

                           Just The Way You Are


Intro: X2
Ahhhhh,ohhhh,ahhhh

e --13----13----8----8----|------------8---------------------|
b --10----10----10---10---|--11-10-11--10-8-11---------------|
g ------------------------|----------------------------------|
d ------------------------|----------------------------------| 1st bar
a ------------------------|----------------------------------|
E ------------------------|----------------------------------|

e --13----13----8----8----|----------8----8------------------|
b --10----10----10---10---|-11-10-11-10---10-----------------|
g ------------------------|----------------------------------|
d ------------------------|----------------------------------|
a ------------------------|----------------------------------|
E ------------------------|----------------------------------|



Intro2:
Oh her eyes, her eyes.

e -8-8----8-8----8----8---|-8-8-10---------------------------|
b -----10-----10---10--10-|-------10-10----------------------|
g ------------------------|----------------------------------| X2
d ------------------------|----------------------------------|
a ------------------------|----------------------------------|
E ------------------------|----------------------------------|

e -11-10-11-10-11-10-10---|----------------------------------|
b ------------------------|----------------------------------|
g ------------------------|----------------------------------| X1
d ------------------------|----------------------------------|
a ------------------------|----------------------------------|
E ------------------------|----------------------------------|

Chorus:
When I see your face.

e -8-8-13-15-17-----------|-13--8--8-------------------------|
b ------------------------|-10--10-10--11-10-11--------------|
g ------------------------|----------------------------------| 
d ------------------------|----------------------------------|
a ------------------------|----------------------------------|
E ------------------------|----------------------------------|

e 8-13-15-17--15-13-13-15--|-13~-13-13-15-17-15-17-15-18-17-13-15-13|
b -------------------------|----------------------------------------|
g -------------------------|----------------------------------------| 
d -------------------------|----------------------------------------|
a -------------------------|----------------------------------------|
E -------------------------|----------------------------------------|


Order: 
Intro
Intro2
Intro-(for this intro only play the first Bar)
Intro2
Intro-(for this intro only play the first Bar)
Chorus
Intro2
intro(for this intro only play the first Bar)
Chorus
'song ends on Intro'


This tab is for Fely ;P lol
Tap to rate this tab
 
# A B C D E F G H I J K L M N O P Q R S T U V W X Y Z