Song name
# A B C D E F G H I J K L M N O P Q R S T U V W X Y Z

Bruno Mars - Young Girls tab

-------------------------------------------------------------------------------
                             Young Girls - Bruno Mars
-------------------------------------------------------------------------------
Tabbed by:
E-mail:

Tuning: Standard

e|---------------------------------------------------------------------------|
B|---------------0-------5-------0-------------------------------------------|
G|-6-----------------6-------6-----------------------------------------------|
D|-7-7-7-7-7-7-7-7-7-7-7-7-7-7-7-7-------------------------------------------|
A|---------------------------------------------------------------------------|
E|---------------------------------------------------------------------------|

e|---------------------------------------------------------------------------|
B|---------------0-------5---7---5-------------------------------------------|
G|-6-----------------6-------------------------------------------------------|
D|-6-6-6-6-6-6-6-6-6-6-6-6-6-6-6-6-------------------------------------------|
A|---------------------------------------------------------------------------|
E|---------------------------------------------------------------------------|

e|---------------------------------------------------------------------------|
B|---------------0-------5-------0-------------------------------------------|
G|-6-----------------6-------6-----------------------------------------------|
D|-4-4-4-4-4-4-4-4-4-4-4-4-4-4-4-4-------------------------------------------|
A|---------------------------------------------------------------------------|
E|---------------------------------------------------------------------------|

e|---------------------------------------------------------------------------|
B|---------------------------------------------------------------------------|
G|---------------------------------------------------------------------------|
D|---------------------------------------------------------------------------|
A|-7-----------7---11------9-------------------------------------------------|
E|-5-5-5-5-5-5-5-5-7-7-7-7-7-7-7-7-------------------------------------------|

Tap to rate this tab
# A B C D E F G H I J K L M N O P Q R S T U V W X Y Z