Song name
# A B C D E F G H I J K L M N O P Q R S T U V W X Y Z

Bruno Merz - For You Now chords

Highlighted       Show chord diagrams
-----------------------------------------------------------------------
			     For You Now - Bruno Merz
-----------------------------------------------------------------------


Tabbed by: Tabster9000
Email: dakid9496@aol.com

Tuning: Standard [Capo 4]


The entire song is as follows:


    C            C/B         Am          Am/E
e|-----0---0--------0---0-------0---0-------0---0----|
B|-----1---1--------1---1-------1---1-------1---1----|
G|-----0---0--------0---0-------2---2-------2---2----|
D|-----2---2--------2---2-------2---2-------2---2----|
A|--3------------2-----------0-----------------------|
E|---------------------------------------0-----------|

    Fmaj7        Fmaj7/E     Fmaj7       Gsus4 
e|-----0---0-------0---0-------0---0--------0---0----|
B|-----1---1-------1---1-------1---1--------1---1----|
G|-----2---2-------2---2-------2---2--------0---0----|
D|---3-----------2-----------2--------------0---0----|
A|---------------------------------------2-----------|
E|---------------------------------------------------|


E-mail me and let me know what you think. Don't forget to rate!
Tap to rate this tab
 
# A B C D E F G H I J K L M N O P Q R S T U V W X Y Z