Song name
# A B C D E F G H I J K L M N O P Q R S T U V W X Y Z

Brutal Legend - Brutal Legend Solos tab

only a few

Facemelter

| /   slide up
| h   hammer-on
| p   pull-off

e|-11--11p7----------------7h11p7---11p7--------------------|
B|----------9------------9--------9------9------------------|
G|------------8--------8-------------------/13--------------|
D|--------------9----9--------------------------------------|
A|----------------11----------------------------------------|
E|----------------------------------------------------------|

Relic Raiser

E--------------------------------9H14P14---------------------------------|
B---------------------------10----------------10-------------------------|
G----------------------11--------------------------11--------------------|
D------------------11-----------------------------------11---------------|
A--9^-----9H12--------------------------------------------12P9-----------|
E------------------------------------------------------------------------|

Battlecry

E14T15T17------------------------------------------------------------------------| (4X)
B-------------14T15T17-----------------------------------------------------------| (4X)
G--------------------------14T15T19----------------------------------------------| (3X)
D---------------------------------------14T15T19-----------------------------------| (3X)
A----------------------------------------------------14T15T19---------------------| (3X)
E-----------------------------------------------------------------14T15t19^--------|

Summon Deuce

E--------------------------14H17---------------------|
B-----------------14------------14-------------------|
G---------------14--14------------14-----------------|
D-------------16------16------------16--------------|
A----------------------------------------------------|
E---2^--0^-------------------------------------------|

Fan Tribute

E---------7---------     E 10P7 ------15----|
B------7----10P7 4X      B------10(2x)------|
G--9^---------------------------------------|
D-------------------------------------------|
A-------------------------------------------|
E-------------------------------------------|
Tap to rate this tab
 
# A B C D E F G H I J K L M N O P Q R S T U V W X Y Z