Song name
# A B C D E F G H I J K L M N O P Q R S T U V W X Y Z

Brutal Truth - Birth Of Ignorance tab

Help us improve GuitareTab! Take a short survey!
by: Joćo Henrique (joechaosgenocida@yahoo.com)
 
band: BRUTAL TRUTH
song: BIRTH OF IGNORANCE
album: EXTREME CONDITIONS DEMAND EXTREME RESPONSES
 
sixth string is a C# (drop ALL strings as well)
 
\---------------------
|---------------------
|---------------------
|---------------------
|-2---------2---------
/-0-...-----0-...-----
 
\-------------------------------------
|-------------------------------------
|-------------------------------------
|-2^3-2-------4^5-4-------3^4-3-------
|-------2^3-2-------5^6-5-------4^5-4-
/-------------------------------------
 
\---------------    \--------------
|---------------    |--------------
|---------------    |--------------
|-2-4-5---------    |-----5--------
|-0-2-3-3-2-----    |---2-3-3-2----
/-------1-0-...- or /-5-----1-0----
 
Fast riff:
\-------------------------
|-------------------------
|-------------------------
|------------2^3----------
|------2^3----------6^5-6-
/-0000-----0-----00-------
 
"Outro" riff:
\-----------------------------
|-----------------------------
|-----------------------------
|-9--9--10-8-9---9--9--10-8-9-
|-7--7--8--6-7-0-7--7--8--6-7-
/-----------------------------
(figure yourself the "swing" and the muttings)
 
The guitar solo is too messy :)
Related for Birth Of Ignorance tab