Song name
# A B C D E F G H I J K L M N O P Q R S T U V W X Y Z

Bryan Adams - Run To You tab

Help us improve GuitareTab! Take a short survey!
PTL                        Bryan Adams – Run to you

Tabbed by Sanjeev George and Thomas George, Bangalore-13, India
Email at bassatom@yahoo.co.in

Here’s an easy and cool song of Bryan Adams. U must use the right type of distortion 
required effects to get it as it is played.

| s  slide up or slide down
| h  hammer-on
| p  pull-off
| v  vibrato
| ~  hold note and let it ring


Capo 2nd fret on guitar 1

 Riff A (guitar 1)

e|---------------------------------------------|
B|---------------------------------------------|
G|---------------------------------------------|
D|-------0-----0---------0-----0---------------|
A|-----2-----2---2-----2-----4---4-------------|
E|---0-----0-------0-3-----5-------5-----------|

 Riff B (guitar 2)

e|------------------------------------------------|
B|------------------------------------------------|
G|---9b-r~----------------------------------------|
D|--------------9b-release the bend very slowly---|
E|------------------------------------------------|
E|------------------------------------------------|

Riff C (guitar 1)


          C      C   D       A  D A (not too sure about this)
e|----------------2-------------------------|
B|----1~-----1-1--3-------2-2-3-2-----------|
G|----0~-----0-0--2-------2-2-2-2-----------|
D|----2~-----2-2--0-------2-2-0-2-----------|
A|----3~-----3-3----------0-0---0-----------|
A|------------------------------------------|

Riff D

     Em     G       D    A    A
e|---0-0-----------2-2----------------------|
B|---0-0-----------3-3---2--2-2-2-----------|
G|---0-0---0-0-0---2-2---2--2-2-2-----------|
D|---2-2---0-0-0---0-0---2--2-2-2-----------|
A|---2-2---2-2-2---------0--0-0-0-----------|
E|---0-0---3-3-3----------------------------|

Riff E

          Em    G     D
e|---0-0-----------2~------|
B|---0-0-----------3~------|
G|---0-0---0-0-0---2~------|
D|---2-2---0-0-0---0~------|
A|---2-2---2-2-2-----------|
E|---0-0---3-3-3-----------|


Riff F (guitar 2)

e|-----12b14r12(quickly)~----------------|
B|----------------------------12b~-------|
G|---------------------------------------|
D|---------------------------------------|
A|---------------------------------------|
E|---------------------------------------|

Riff G (guitar 2)

e|-----------------------|
B|-----5---7—5s7v--------|
G|---6-------------------|
D|-----------------------|
A|-----------------------|
E|-----------------------|

Riff H (guitar 2)

e|---12b~-----------|
B|------------------|
G|------------------|
D|------------------|
A|------------------|
E|------------------|

Riff I
Guitar 2 plays this twice

e|-----------------------------------------------|
B|-----11h12--11---------------------------------|
G|---------------11----------13h14--13-----------|
D|------------------11~----------------14--------|
A|----------------------------------------14~----|
E|-----------------------------------------------|

e|-----------------------------------------------|
B|-----------------------------------------------|
G|-----11h12--11-------------13h14--13-----------|
D|---------------12--------------------14--------|
A|------------------12~-------------------14~----|
E|-----------------------------------------------|

Then guitar 1 joins with guitar 2 on the second time with

e|-----------------------------------------------|
B|-----------------------------------------------|
G|-----3h4--3------------------------------------|
D|------------4--------6h7--6--------------------|
A|--------------4~------------7------------------|
E|------------------------------7~---------------|

e|------------------------------------------------|
B|------------------------------------------------|
G|------------------------------------------------|
D|-----4h5--4----------6h7--6---------------------|
A|------------5---------------7-------------------|
E|--------------5~--------------7~----------------|

The song goes like this

Intro=riff A, followed by riff B on the second time
Verse 1=riff A
Pre chorus 1=riff C
Chorus=riff D and riff E

Play intro riff and riff F

Verse 2=riff A and also riffs G and H
Pre chorus 2=riff C
Chorus twice=riff D

Solo=riff I (both guitars)

(In live versions, there is a long gap after this and then suddenly it starts)

Play riff D twice
And back to chorus till it fades away………..play riff D and E throughout and keep 
on the D chord at some points (listen to song)

Comments and suggestions at bassatom@yahoo.co.in
Related for Run To You tab