Song name
# A B C D E F G H I J K L M N O P Q R S T U V W X Y Z

Bryan Adams - Lo Hago Por Ti tab

Help us improve GuitareTab! Take a short survey!
“Lo hago por ti”
Bob Dylan

Bueno, esta es mi contribución para esta linda cancion, 
dedicada a una persona igual o mas 
linda: **Anitatsuki**, esta version trata de imitar al piano,
lo demas solo son los que creo son los acordes que se usan
en la cancion original.
Well, this is my contribution, i hope enjoy it.
INTRO:
e|-2-----2-----2-----3-5-3-2-|-0-----0-----0-----0-5-5---|
B|-3-----3-----3-------------|-2-----2-----2-----------3-|
G|-2--2-----2-----2----------|-2--2-----2-----2----------|
D|-0-------------------------|-0-------------------------|
A|---------------------------|---------------------------|
E|---------------------------|---------------------------|

e|---------------------0-2---|-0-----0-----0-----|
B|-3-----3-----3-----3-----3-|-3-----3-----3-----|
G|----0-----0-----0----------|----2-----2-----2--|
D|-0-------------------------|-0-----------------|
A|---------------------------|-------------------|
E|---------------------------|-------------------|

   D                     A/D                G/D            A/D
    Mira en mis ojooos,      y veras     lo que siento por tiii

          D        A/D       G               D       A
    explorad en tu ser  me hallaras,  no buscaaaaras mas

      Em             D     Em                       D    A
    dime que sientes mi calor,   y que correspondes mi amor

              D               A            D
    sabes que si  todo lo que hago lo hago por ti

e|----------------------------|----------------------------|
B|-3----------------------3---|-3----------------------3---|
G|-2--------------------2---2-|-2--------------------2---2-|
D|-0--------0--0------0-------|-0--------0--0------0-------|
A|----------------------------|----------------------------|
E|----------------------------|----------------------------|

   D                 A/D               G           A
    mira mis ojooos       y sabrás que nada te ocultan

                 D          A/D         G             D      A
    son como tu ves, toooomame,  quisiera poder, poderte lograr

      Em             D     Em                       D   Em
    dime que sientes mi calor  nada quiero más que tu amor

              D                  A              D
    sabes que siiii  todo lo que haaago lo hago por tiii

             C       F         C           G
    no hay amor como tu y otro que te ame aaasi

            C          A               E         A
    no hay lugar si tu no estas donde quisiera estar, yeah
e|--0--2----|
B|-------0--|
G|----------|

SOLO (con adornos):  G - G* - G** - G - D - Asus/D - D* - D   (2 VECES)

SOLO (sencillo):   G  -  D  -  G  -  D

(Escuchen el solo para saber cuando cambiar
 de acordes)

   D         Em                   A       Em                  G
    Oh, dime que tu sientes mi calor nada quiero más que tu amor

          D               A                 G              Gm
    que luchar por ti, sufrir por ti, lo haria si,  uuoh morir por tiiii


Sabes que siiiii.....       to  do  lo  que  ha..go           uuoooo
        e|-2-----2-----2-----3---5---3---2-|-0-----0-----0-----0----|
        B|-3-----3-----3-------------------|-2-----2-----2-----2----|
        G|----2-----2-----2----------------|----2-----2-----2-----2-|
        D|---------------------------------|------------------------|
        A|-0-------------------------------|-0----------------------|
        E|---------------------------------|------------------------|


 oooh              lo hago poor tii
e|-------------0-----0----|-2-----2-----2-----2----|
B|-3-----3-----0-----0----|-3-----3-----3-----3----|
G|-0-----0--------0-----0-|----2-----2-----2-----2-|
D|----0-----0-------------|-0----------------------|
A|------------------------|------------------------|
E|-3-----------0----------|------------------------|


ACORDES UTILIZADOS: (chords used)
D:      XX0232
A/D:    XX0220
G/D:    XX0033
G:      320022 o 320003
D/A:    X40323
A:      X02220
Em:     022000
C:      332010 o X32010
F:      133211
Gm:     355333
G*:     300032
G**:    320035
Asus/D: XX0230
D*:     XX0233

Pues ahí esta, si tienen alguna duda escuchen la canción o escriban a mi
Correo: AQUILES_MAN@hotmail.com
Related for Lo Hago Por Ti tab