Guitaretab - guitar tabs
Song name
# A B C D E F G H I J K L M N O P Q R S T U V W X Y Z

Bryan Adams - Take Me Back tab

 Bryan Adams – take me back

By Sanjeev George and Thomas George
Tabbed for www.ultimate-guitar.com only
Contact us at SanjeevGeorge123@yahoo.co.in


Intro

Guitar 1
e|----------------------------------------------------------------------------|
B|----------------------------------------------------------------------------|
G|----------------5----5---5-------------------------------5-4--5-4-----------|play 3 times
D|--7----7---7----5----5---5----3----3---3----7----7---7---5-4--5-4-----------|
A|--7----7---7----3--3-3---3----3----3---3----7----7---7----------------------|
E|--5--5-5---5------------------1--1-3---1----5--5-5---5----------------------|

Guitar 2
e|-------------------------10b12---r10---8----8-8-------------|
B|---------------7b------------------------10-----10v---------|
G|--7b9—--r7---5----5v----------------------------------------|
D|------------------------------------------------------------|
A|------------------------------------------------------------|
E|------------------------------------------------------------|


Verses (at “musta been……” and “she was gone…….” and “It’s a crime….”)

Guitar 1
e|----------------------3------3---------|
B|------------------------3----3---------|
G|--5--5--5-5---------------4--4---------|
D|--5--5--5-5----3--5----------5---------|
A|--3--3--3-3----3--5--------------------|
E|-------------0-1--3--------------------|

Chorus
Guitar 1
e|----------------------------------------------------------------------------|
B|----------------------------------------------------------------------------|
G|----------------5----5---5-------------------------------5-4--5-4-----------|play 2 times
D|--7----7---7----5----5---5----3----3---3----7----7---7---5-4--5-4-----------|
A|--7----7---7----3--3-3---3----3----3---3----7----7---7----------------------|
E|--5--5-5---5------------------1--1-3---1----5--5-5---5----------------------|


Small parts of guitar 2 during verse 2


e|------------------|
B|------------------|
G|------------------|
D|--5h7-7-5-5-7-7---|
A|------------------|
E|------------------|
        . . . . .

e|-----------------------------|
B|--8b10---r8---8b10r8b10------|
G|-----------------------------|
D|-----------------------------|
A|-----------------------------|
E|-----------------------------|

e|---------------|
B|---------------|
G|--5------------|
D|----5-7-7v-----|
A|---------------|
E|---------------|
       .   .   .

e|----------|
B|--8b10~---|
G|----------|
D|----------|
A|----------|
E|----------|

Bridge (guitar 1)
[ Tab from: http://www.guitaretab.com/b/bryan-adams/120086.html ]
e|------------------------------------------3333-----3333-----3333-----3333--------|
B|-----6-6-6-6--6-5------6-6-6-6---6-6------3333-----3333-----3333-----3333--------|
G|--5--5-5-5-5--5-5---5--5-5-5-5---5-5------4444-----4444-----4444-----4444--------|
D|--5-----------------5------------------5--5555-----5555-----5555-----5555--------|
A|--3-----------------3------------------5--5555-----5555-----5555-----5555--------|
E|---------------------------------------3--3333--3--3333--3--3333--3--3333--------|
                                               Hope this part is correct!

Solo (guitar 2)

e|-------------------------------------------------|
B|-------------------------------------------------|
G|--5v-------5---7b9r7p5---------------------------|
D|-------5h7---7---------7v---7-5-7-5--------------|
A|------------------------------------7-0----------|
E|-------------------------------------------------|
                              . . . . .

E|--------8---10b12r10p8--------10b12r10p8---------10b12-hold bend, release slowly to 10------|
B|---8h10----------------10v---------------10v------------------------------------------------|
G|--------------------------------------------------------------------------------------------|
D|--------------------------------------------------------------------------------------------|
A|--------------------------------------------------------------------------------------------|
E|--------------------------------------------------------------------------------------------|


Verse 1

D                A 
I shoulda seen it coming
  D              A
I shoulda seen the signs
   D  
Didn't really think
          A
that she needs me

Must've been blind

   D                A
She didn't give me a warning
   D                       A
Said I shouldn't treat you wrong
       D                  A
But when I woke up this mornin'

She was gone gone gone

Chorus
she said...
Take me back won't ya
Take me back won't ya
I'll change my ways
Take me back won't ya
Take me back won't ya
I'm not the same


Verse 2
   D               A
She didn't tellm me about it
   D                    A
Am I supposed to read your mind
      D                A
you make me get up and shout it

It's a crime crime crime

   D              A
I shoulda seen it coming
   D             A
I shoulda seen the signs
   D            
Didn't really think
            A
that she needs me

Must've been blind

Chorus
she said...
Take me back won't ya
Take me back won't ya
I'll change my ways
Take me back won't ya
Take me back won't ya
I'm not the same

Won't ya take me back
Won't ya take me back
Related for Take Me Back tab