Song name
# A B C D E F G H I J K L M N O P Q R S T U V W X Y Z

Bryan Adams - When The Night Comes tab

I'm only 15 years old but i know all of Bryan Adams song. I love this song. Any 
or comments..mcross3317@yahoo.com


I'm pretty sure this is about 99% correct. I'm a little unsure about the bridge. This is 
amazing song..so enjoy!


This is played during the Intro, Verses, Chorus, and during the solo.

-0--------0---------0--------0--------0--------------------|
-0--------0---------0--------0--------0--------------------|
-8--------6---------1--------2--------1--------------------|
-9--x4----7--x4-----2--x4----2--x2----2--------------------|
-9--------7---------2--------0--------2--------------------|
-0--------0---------0--------0--------0--------------------|

Solo: Guitar 2


-----------------------------------------------------------|
------------------------------12---------------------------|
--11---9s-11s-9---11b--(13)--------11----------------------|
-----------------------------------------------------------|
-----------------------------------------------------------|
-----------------------------------------------------------|

Bridge:


--4----------0-----------4---------0----------4------2-------0----|
--5----------0-----------5---------0----------5------2-------2----|
--6----------1-----------6---------1----------6------3-------2----|
--6--x6------2---x6------6--x6-----2--x6------6-x6---4-x6----2----|
--4----------2-----------4---------2----------4------4-------0----|
-------------0---------------------0-----------------2-------0----|
Tap to rate this tab
 
# A B C D E F G H I J K L M N O P Q R S T U V W X Y Z