Song name
# A B C D E F G H I J K L M N O P Q R S T U V W X Y Z

Bryan Adams - Its Only Love tab

this is a really great bryan adams song, and i'm surprised that nobody's tabbed out the
yet. i'm figuring them out for myself, and so far i've got the intro solo down. i'll
the other solos after i've finished tabbing them. if you want to try them out for 
they're in the D minor penatonic scale.


intro solo (0:09), distortion

|-------------10--10~~--------|------------------------------------|
|--/10--10h13---------13~~----|---------------13b--13--------------|
|-----------------------------|--------10--12----------12~~--10~~--|
|-----------------------------|--10h12-----------------------------|
|-----------------------------|------------------------------------|
|-----------------------------|------------------------------------|

|--------------------|--------------------------------------------|
|--------------------|--------------------------------------------|
|--------------------|--------------------------------------------|
|--------------------|--------------------------------------------|
|--10~~--------------|---------------8h10--10b--10b--10h12p10--8--|
|------13--10~~--8\--|--8h10--10/13-------------------------------|

|--10--10~~-----------10~~------------10--13--15b~~--13------15b~~--|
|------------13--10---------13--10-----------------------15---------|
|----------------------------------12-------------------------------|
|-------------------------------------------------------------------|
|-------------------------------------------------------------------|
|-------------------------------------------------------------------|

|--15pbr--13----13--15pbr--13------13---------------10-----10-|
|------------15----------------15------13--10-----10----------|
|----------------------------------------------12b-----12b----|
|-------------------------------------------------------------|
|-------------------------------------------------------------|
|-------------------------------------------------------------|

|----------------------------------|
|------13---------13----10--10~~\--|
|--12b----12pbr---12br--10--10~~\--| end intro solo (0:29)
|----------------------------------|
|----------------------------------|
|----------------------------------|

it's not perfect, but it should give you a general idea of how to play the song. more's
soon, so be patient.

Tabbed by B.Z.
Tap to rate this tab
# A B C D E F G H I J K L M N O P Q R S T U V W X Y Z