Song name
# A B C D E F G H I J K L M N O P Q R S T U V W X Y Z

Bryan Adams - When Youre Gone tab

When Youre Gone
Brian Adams
3/7/06
Tabbed by Richard Smerdon for Ultimate-Guitar.com
U.K
Its spread out because not everything would fit on each page.

This Is 100% Accurate.

Standard Tuning EADGBe.

This Is The Basic Rhythm for the verse, these are the power chords used with distortion
youll have to listen to the song for the timing because its difficult.
************************************************************************
******UG Staff, Please, Tell Me What IS WRONG With It Please!!!!********
************************************************************************


Verse, repeat 3 times, on the forth time play whats below.

E|-----------------------------------------------------------------------------------|
B|-----------------------------------------------------------------------------------|
G|----7--------------------5---------------------------------------------------------|
D|----7---------5----------5---------------------------------------------------------|
A|----5---------5----------3---------------------------------------------------------|
E|--------------3--------------------------------------------------------------------|


Forth time.

E|---------------------------------------------------------------------------------|
B|---------------------------------------------------------------------------------|
G|----7------3---------------------------------------------------------------------|
D|----7------3------5--------------------------------------------------------------|
A|----5------1------5--------------------------------------------------------------|
E|------------------3--------------------------------------------------------------|


Chorus. Repeat 3 times and on the forth time play whats below.  100% The Chorus is 
like this:

E|------------------------------------|
B|------------------------------------|
G|-----7-------------5----------------|
D|-----7------3------5-------5--------|
A|-----5------3------3-------5--------|
E|------------1--------------3--------|

E|-----------------------------------|
B|-----------------------------------|
G|-----7-----3-----------------------|
D|-----7-----3-------5---------------|
A|-----5-----1-------5---------------|
E|-------------------3---------------|

Verse, on the first time play this, and on the second time play whats below,  then back
normal until the forth verse.

E|------------------------------------------x-----x--x----x-------------------------|
B|------------------------------------------6-----66p----5-------------------------|
G|----7--------------------5----------------5-----55p----5-------------------------|
D|----7---------5----------5----------------7-----7-7p---5--------------------------|
A|----5---------5----------3----------------x-----x--x---x--------------------------|
E|--------------3---------------------------x-----x--x---x--------------------------|


E|-----------------------------------------------------------------------------------------------------|
B|-----------------------------------------------------------------------------------------------------|
G|----7------------------------------------------------------------------------------------------------|
D|----7------5---------------------------------------------5---------------5--5---------------------5--|
A|----5------5---------3------3--------5------h7----------------------------------5------h7------------|
E|-----------3-----------------------------------------------------------------------------------------|

Forth time.

E|---------------------------------------------------------------------------------|
B|---------------------------------------------------------------------------------|
G|----7------3---------------------------------------------------------------------|
D|----7------3------5--------------------------------------------------------------|
A|----5------1------5--------------------------------------------------------------|
E|------------------3--------------------------------------------------------------|


Chorus. Repeat 3 times and on the forth time play whats below.  100% The Chorus is 
like this:

E|------------------------------------|
B|------------------------------------|
G|-----7-------------5----------------|
D|-----7------3------5-------5--------|
A|-----5------3------3-------5--------|
E|------------1-------------3---------|

E|------------------------------------|
B|------------------------------------|
G|-----7-----3------------------------|
D|-----7-----3-------5----------------|
A|-----5-----1-------5----------------|
E|-------------------3----------------|

SOLO

e|-----8------------------------------------------------5------------------------------------------------------------|
B|-----8--------------------------------------------------8----------------------------------------------------------|
G|-------------7b9L7~--------5------7b9DL----------------7b9---(9)(9)(9)(9)(9)L----55------5-------------------------|
D|-----------------------------------------------------------------------------------------------------7-------------|
A|-------------------------------------------------------------------------------------------------------------------|
E|-------------------------------------------------------------------------------------------------------------------|

e|----------------------------------------------------------------------------------------------------------------------|
B|----------------------------------------------------------------------------------------------------------------------|
G|------7--5---7-7-7-5---7b9(9)-(9)-(9)----5---------------5-------5H--------------------------------------------------|
D|--------------------------------------------------------7------5-7-----7----------------------------------------------|
A|-----------------------------------------------------------5-7--------------------------------------------------------|
E|----------------------------------------------------------------------------------------------------------------------|

e|-----------------------------------------------------------------------------------------------8----10/12--10--8-|
B|-----8-810-10---88----10-10----8-8--10-10---------------88889-8-9----------------------------------------------|
G|----------------------------------------------7--5---------------------------------------------------------------|
D|-----------------------------------------------------7/9---------------------------------------------------------|
A|-----------------------------------------------------------------------------------------------------------------|
E|-----------------------------------------------------------------------------------------------------------------|

e|------8-8----10-10-----8-10---10----------------------------------------------------------------|
B|------------------------------------------11--11----11-11-11---10------8-8----------------------|
G|------------------------------------------------------------------------------------------------|
D|------------------------------------------------------------------------------------------------|
A|------------------------------------------------------------------------------------------------|
E|------------------------------------------------------------------------------------------------|

| /  slide up
| \  slide down
| h  hammer-on
| p  pull-off
| ~  vibrato
| +  harmonic
| x  Mute note
b bend up
L let down
DL Dont let down
H Hold note
Tap to rate this tab
# A B C D E F G H I J K L M N O P Q R S T U V W X Y Z