Guitaretab - guitar tabs
Song name
# A B C D E F G H I J K L M N O P Q R S T U V W X Y Z

Bryan Adams - I Think About You tab

"I think about you" - Bryan Adams

Intro:

E----------------------------------------------|
B----------------------------------------------|
G-4-2-0H2--------------------------------------|
D-5-4-----0H2--2P0-----------------------------|
A------------------2P0-------------------------|
E----------------------3-----------------------|


VERSE 1:

Em               C            D   G
I OUGHT TO BE WORKING BUT I CAN'T CONCENTRATE
G                C                D          G
I OUGHT TO BE SLEEPING INSTEAD OF STAYING UP LATE
G                  C               D            Em
WHEN I OUGHT TO BE DOING ALL THE THINGS I SHOULD DO
C
I THINK ABOUT YOU

VERSE 2:

G                C                D          G
I OUGHT TO BE WRITING BUT I CAN'T FIND A SONG
G                C          D          G
JUST SITING HERE DRIFTING, DRIFTING ALONG
G                  C           D     Em
THERE'S ONLY ONE THING THAT I WANA DO
C
THAT'S THINK ABOUT YOU

CHORUS:
   D           G
I THINK ABOUT YOU
      C
I CAN'T GET NO REST
   D           G
I THINK ABOUT YOU
       C
THERE'S NO ONE ELSE
Em               C
THAT'S ALL I CAN DO
C
I CAN'T HELP MYSELF
C
I THINK ABOUT U
[ Tab from: http://www.guitaretab.com/b/bryan-adams/131719.html ]
E----------------------------------------------|
B----------------------------------------------|
G-4-2-0H2--------------------------------------|
D-5-4-----0H2--2P0-----------------------------|
A------------------2P0-------------------------|
E----------------------3-----------------------|


VERSE 3:
Em               C            D   G
I COULD GO CRUSING BUT I'VE HAD ENOUGH
G                C                D          G
I COULD GO DRINKING BUT I CAN'T STAND THIS STUFF
G            C           D     Em
JUST DON'T DO ME LIKE IT USED TO DO
C
I'D RATHER THINK ABOUT YOU

CHORUS

I THINK ABOUT YOU
I CAN'T GET NO REST
I THINK ABOUT YOU
THER'S NO ONE ELSE
THAT'S ALL I CAN DO
I CAN'T HELP MYSELF
YEAH I THINK ABOUT U

Then this sort of solo: (listen to the song for the exact timing ^^)


E ------------------------------------------
B ------------------------------------------
G ------------------------------------------
D ---------0--2-----------------------------
A ---2--3--------2--0----0--0h2-2-----------
E -3------------------3---------------------


E ------------------------------------------
B ------------------------------------------
G ------------------------------------------
D ---------0--2-----------------------------
A ---2--3--------2h0----0h2h0---------------
E -3------------------3---------3-----------

Thanks, this is my first tab so i hope its all ok. ^_^
Related for I Think About You tab