Song name
# A B C D E F G H I J K L M N O P Q R S T U V W X Y Z

Bryan Adams - Wherever You Go tab

Hey this is my first tab i have submitted on here.
I noticed that there wasnt a solo for this song on here so i figured it out.
this is 100% correct or close to it anyway, enjoy.
Fig.1
e|---4---4----2----1----------------------------------------------------|
B|---------------------4---------4----4----6----6/7----6--------2-------|
G|----------------------------------------------------------3-----------|
D|----------------------------------------------------------------------|
A|----------------------------------------------------------------------|
E|----------------------------------------------------------------------|

e|----------------------------------------------------------------------|
B|--4----4/6----4----2---1----------------------------------------------|
G|----------------------------3bh-----1---------------------------------|
D|----------------------------------------------------------------------|
A|----------------------------------------------------------------------|
E|----------------------------------------------------------------------|

Fig.2
e|---4---4----2-----1--------------------------6------------------------|
B|-------4----2----------4------4---4-----6----6/7----6-----------2---4-|
G|-----------------------------------------------------------3----------|
D|----------------------------------------------------------------------|
A|----------------------------------------------------------------------|
E|----------------------------------------------------------------------|

e|---4------------------------------------------------------------------|
B|---4/6-----4----2----1------------------------------------------------|
G|---------------------------3\1----------------------------------------|
D|----------------------------------------------------------------------|
A|----------------------------------------------------------------------|
E|----------------------------------------------------------------------|

P.s If its easier just play figure 1 twice its pretty much the same.
Tap to rate this tab
# A B C D E F G H I J K L M N O P Q R S T U V W X Y Z