Guitaretab - guitar tabs
Song name
# A B C D E F G H I J K L M N O P Q R S T U V W X Y Z

Bryan Adams - Summer Of 69 tab

( = BEND

INTRO
|---------------------|
|-3----3--------------|
|-2-22-2-222222222222-|  2x
|-0-00-0-000000000000-|
|---------------------|
|---------------------|

VERSE 1
  D               A
|---------------------------------|
|-3-33-3-33333333-----------------|
|-2-22-2-22222222-2----2----------|
|-0-00-0-00000000-2-22-2-22222222-|
|-----------------0-00-0-00000000-|
|---------------------------------|

   D               A
|---------------------------------|
|-3-33-3-33333333-----------------|
|-2-22-2-22222222-2----2----------|
|-0-00-0-00000000-2-22-2-22222222-|
|-----------------0-00-0-00000000-|
|---------------------------------|

  D               A
|---------------------------------|
|-3-33-3-33333333-----------------|
|-2-22-2-22222222-2----2----------|
|-0-00-0-00000000-2-22-2-22222222-|
|-----------------0-00-0-00000000-|
|---------------------------------|

   D               A
|---------------------------------|
|-3-33-3-33333333-----------------|
|-2-22-2-22222222-2----2----------|
|-0-00-0-00000000-2-22-2-22222222-|
|-----------------0-00-0-00000000-|
|---------------------------------|

CHORUS 1
  Bb            A             D             G
|-------------------------------------------3-33-3-33-3-3-|
|-----------------------------3----3----3---3-33-3-33-3-3-|
|-4-44-4-44-4-4-2----2----2---2-22-2-22-2-2-0-00-0-00-0-0-|  2x
|-4-44-4-44-4-4-2-22-2-22-2-2-0-00-0-00-0-0-0-00-0-00-0-0-|
|-2-22-2-22-2-2-0-00-0-00-0-0---------------2-22-2-22-2-2-|
|-------------------------------------------3-33-3-33-3-3-|

  Bb            A             D
|-------------------------------------------|
|-----------------------------3----3----3---|
|-4-44-4-44-4-4-2----2----2---2-22-2-22-2-2-|
|-4-44-4-44-4-4-2-22-2-22-2-2-0-00-0-00-0-0-|
|-2-22-2-22-2-2-0-00-0-00-0-0---------------|
|-------------------------------------------|

BRIDGE 1
  D           D          D     A           A         A
|-0-----2-----3-----2----0---2-------------------------------|
|---3-----3-----3-----3----3---0-----2-----3-----2-----0---2-|
|-----2-----2-----2-----2--------2-----2-----2-----2-----2---|
|----------------------------------2-----2-----2-----2-------|
|------------------------------------------------------------|
|------------------------------------------------------------|

  D           D                A           A
|-0-----2-----3-----2----0---2-------------------------------|
|---3-----3-----3-----3----3---0-----2-----3-----2-----0---2-|
|-----2-----2-----2-----2--------2-----2-----2-----2-----2---|
|----------------------------------2-----2-----2-----2-------|
|------------------------------------------------------------|
|------------------------------------------------------------|

VERSE 2
  D               A
|---------------------------------|
|-3-33-3-33333333-----------------|
|-2-22-2-22222222-2----2----------|
|-0-00-0-00000000-2-22-2-22222222-|
|-----------------0-00-0-00000000-|
|---------------------------------|

  D               A
|---------------------------------|
|-3-33-3-33333333-----------------|
|-2-22-2-22222222-2----2----------|
|-0-00-0-00000000-2-22-2-22222222-|
|-----------------0-00-0-00000000-|
|---------------------------------|

CHORUS 2
  Bb            A             D             G
|-------------------------------------------3-33-3-33-3-3-|
|-----------------------------3----3----3---3-33-3-33-3-3-|
|-4-44-4-44-4-4-2----2----2---2-22-2-22-2-2-0-00-0-00-0-0-|  2x
|-4-44-4-44-4-4-2-22-2-22-2-2-0-00-0-00-0-0-0-00-0-00-0-0-|
|-2-22-2-22-2-2-0-00-0-00-0-0---------------2-22-2-22-2-2-|
|-------------------------------------------3-33-3-33-3-3-|

  Bb            A             D
|-------------------------------------------|
|-----------------------------3----3----3---|
|-4-44-4-44-4-4-2----2----2---2-22-2-22-2-2-|
|-4-44-4-44-4-4-2-22-2-22-2-2-0-00-0-00-0-0-|
|-2-22-2-22-2-2-0-00-0-00-0-0---------------|
|-------------------------------------------|

BRIDGE 2
  D           D          D     A           A         A
|-0-----2-----3-----2----0---2-------------------------------|
|---3-----3-----3-----3----3---0-----2-----3-----2-----0---2-|
|-----2-----2-----2-----2--------2-----2-----2-----2-----2---|
|----------------------------------2-----2-----2-----2-------|
|------------------------------------------------------------|
|------------------------------------------------------------|
[ Tab from: http://www.guitaretab.com/b/bryan-adams/186541.html ]
  D           D                A           A
|-0-----2-----3-----2----0---2-------------------------------|
|---3-----3-----3-----3----3---0-----2-----3-----2-----0---2-|
|-----2-----2-----2-----2--------2-----2-----2-----2-----2---|
|----------------------------------2-----2-----2-----2-------|
|------------------------------------------------------------|
|------------------------------------------------------------|

VERSE 3
  F   Bb  C   C C C F   Bb  C   C C C
|-1---1---3---3-3-3-1---1---3---3-3-3-|
|-1---1---3---3-3-3-1---1---3---3-3-3-|
|-3---3---5---5-5-5-3---3---5---5-5-5-|
|-3---1---3---3-3-3-3---1---3---3-3-3-|
|-1-----------------1-----------------|

BRIDGE 3
  D           D                A           A
|-0-----2-----3-----2----0---2-------------------------------|
|---3-----3-----3-----3----3---0-----2-----3-----2-----0---2-|
|-----2-----2-----2-----2--------2-----2-----2-----2-----2---|
|----------------------------------2-----2-----2-----2-------|
|------------------------------------------------------------|
|------------------------------------------------------------|

  D           D                A           A
|-0-----2-----3-----2----0---2-------------------------------|
|---3-----3-----3-----3----3---0-----2-----3-----2-----0---2-|
|-----2-----2-----2-----2--------2-----2-----2-----2-----2---|
|----------------------------------2-----2-----2-----2-------|
|------------------------------------------------------------|
|------------------------------------------------------------|

VERSE 4
  D               A
|---------------------------------|
|-3-33-3-33333333-----------------|
|-2-22-2-22222222-2----2----------|
|-0-00-0-00000000-2-22-2-22222222-|
|-----------------0-00-0-00000000-|
|---------------------------------|

  D               A
|---------------------------------|
|-3-33-3-33333333-----------------|
|-2-22-2-22222222-2----2----------|
|-0-00-0-00000000-2-22-2-22222222-|
|-----------------0-00-0-00000000-|
|---------------------------------|

CHORUS 3
  Bb            A             D             G
|-------------------------------------------3-33-3-33-3-3-|
|-----------------------------3----3----3---3-33-3-33-3-3-|
|-4-44-4-44-4-4-2----2----2---2-22-2-22-2-2-0-00-0-00-0-0-|  2x
|-4-44-4-44-4-4-2-22-2-22-2-2-0-00-0-00-0-0-0-00-0-00-0-0-|
|-2-22-2-22-2-2-0-00-0-00-0-0---------------2-22-2-22-2-2-|
|-------------------------------------------3-33-3-33-3-3-|

  Bb            A             D
|-------------------------------------------|
|-----------------------------3----3----3---|
|-4-44-4-44-4-4-2----2----2---2-22-2-22-2-2-|
|-4-44-4-44-4-4-2-22-2-22-2-2-0-00-0-00-0-0-|
|-2-22-2-22-2-2-0-00-0-00-0-0---------------|
|-------------------------------------------|

BRIDGE 4
  D                            A
|-0-----2-----3-----2----0---2-------------------------------|
|---3-----3-----3-----3----3---0-----2-----3-----2-----0---2-|
|-----2-----2-----2-----2--------2-----2-----2-----2-----2---|
|----------------------------------2-----2-----2-----2-------|
|------------------------------------------------------------|
|------------------------------------------------------------|

  D                            A
|-0-----2-----3-----2----0---2-------------------------------|
|---3-----3-----3-----3----3---0-----2-----3-----2-----0---2-|
|-----2-----2-----2-----2--------2-----2-----2-----2---------|
|----------------------------------2-----2-----2-----2-------|
|------------------------------------------------------------|
|------------------------------------------------------------|

OUTRO
  D                            A
|-0-----2-----3-----2----0---2-------------------------------|
|---3-----3-----3-----3----3---0-----2-----3-----2-----0---2-|
|-----2-----2-----2-----2--------2-----2-----2-----2---------|
|----------------------------------2-----2-----2-----2-------|
|------------------------------------------------------------|
|------------------------------------------------------------|

  D                 D          A                 A
|-0-----2-----3-----2----0---2-------------------------------|
|---3-----3-----3-----3----3---0-----2-----3-----2-----0---2-|
|-----2-----2-----2-----2--------2-----2-----2-----2---------|
|----------------------------------2-----2-----2-----2-------|
|------------------------------------------------------------|
|------------------------------------------------------------|

And thats all of it! please leave a comment on it on how i did and please tell me if i 
a mistake! cheers bye!

Slash2kai9
Related for Summer Of 69 tab