Song name
# A B C D E F G H I J K L M N O P Q R S T U V W X Y Z

Bryan Adams - Its Only Love tab

Everyone seems to have the chords down pretty well, but i have
yet to see any solos. Here they are, listen closely for
timing. These are highly accurate. Please rate well. Youll have
a great time playing them.

 Intro solo
|-------10----------|--------------10--------------------------|
|--10h13--13b-13~~--|----------------13------------------------|
|-------------------|-------10-12b-----12r-10~~----------------|
|-------------------|--10h12--------------------12-10----------|
|-------------------|--------------------------------12~~-10/--|
|-------------------|------------------------------------------|

|-------------------------------|------------------------------------13-|
|-------------------------------|--13b-13b~~-13-10-13b~~-13-10-13/15----|
|-------------------------------|---------------------------------------|
|----------------10-10-12p10----|---------------------------------------|
|------8-10-10/12-----------12--|---------------------------------------|
|--8-10-------------------------|---------------------------------------|

-15b~~-15rp13-15b~~--|--15r-13-15-15br-13-13-15p13----|-----10----10-|
---------------------|----------------------------15--|--13----13----|
---------------------|--------------------------------|--12b---12b---|
---------------------|--------------------------------|--------------|
---------------------|--------------------------------|--------------|
---------------------|--------------------------------|--------------|

------------------------|
-10-13----13------------|
-------12b--12br-10~~\--|
------------------------|
------------------------|
------------------------|

 1st solo break
|-----10------------------|-----10---------------------|-----------------|
|--13----13---------------|--13----13------------------|-----------------|
|--12b------12brp10-12~~--|--12b-----12br10-12p10------|-----------------|
|-------------------------|----------------------12~~--|--10-12-12-10-12-|
|-------------------------|----------------------------|-----------------|
|-------------------------|----------------------------|-----------------|

---------------|--------------------------------------------|
---------------|--------------10tr13-13b~~-13p10-13b-13b~~--|
--10-----10----|--------10tr12------------------------------|
----12-12--12--|--10tr12------------------------------------|
---------------|--------------------------------------------|
---------------|--------------------------------------------|

 2nd solo break
|-------------------------------------------------------------------|
|-----10-13---10-13---10-13---10-13---10-13---10-13-10--------------|
|--12b-----12b-----12b-----12b-----12b-----12b--------12brp10-12~~--|
|-------------------------------------------------------------------|
|-------------------------------------------------------------------|
|-------------------------------------------------------------------|

|-----10-10-10----10-10-10----10-10-10----10-10-10----10-10-10----10-10-10-|
|-----10-10-10----10-10-10----10-10-10----10-10-10----10-10-10----10-10-10-|
|--12b---------12b---------12b---------12b---------12b---------12b---------|
|--------------------------------------------------------------------------|
|--------------------------------------------------------------------------|
|--------------------------------------------------------------------------|

-----13-10---------10---------------|--------------------------------|
----------13-10----10---------------|--10\---------------------------|
--12b-----------12b--12brp10--------|--10\--5b-5~~-------------------|
------------------------------12~~--|--------------5b-5~~----3-3-3-3-|
------------------------------------|---------------------3h5--------|
------------------------------------|--------------------------------|

---------------------|-----------------8--8-\--|
--------------6-6~~--|------6---6---6--8b-8b\--|
-5-3---5p3-5p3-------|--5/7---7---7------------|
----5-3--------------|-------------------------|
---------------------|-------------------------|
---------------------|-------------------------|

 lead fills
|------------------------|--10------------------------------------|
|------------------------|--13p10-13--10-----------------10-------|
|--12b~~rp10h12p10-10~~--|------------12p10-12--10-------10-12~~--|
|------------------------|----------------------12p10-12----------|
|------------------------|----------------------------------------|
|------------------------|----------------------------------------|

|--10-----------10-----10-----10-----10--13b~~--|-------------------|
|--10h13p10h13--10h13--10h13--10h13--10---------|--13--13--13-------|
|-----------------------------------------------|--12b-12b-12brp10--|
|-----------------------------------------------|-------------------|
|-----------------------------------------------|-------------------|
|-----------------------------------------------|-------------------|

----------------------------|--15b~~-15b-15p13-13h15------------------|
-13--13--13-----------------|-----------------------13h15-10h13-13p10-|
-12b-12b-12brp10-12p10------|-----------------------------------------|
----------------------12~~--|-----------------------------------------|
----------------------------|-----------------------------------------|
----------------------------|-----------------------------------------|

------------|
------------|
-12p10------|
------12~~--|
------------|
------------|

 Outro solo
|--13-------------|----------------------------------------13p10~~--|
|--13r~~----------|---------------13p10-----------------------------|
|--------14p12~~--|-------10-12b~~-----12rp10---10-12/14~~----------|
|-----------------|--10h12--------------------12--------------------|
|-----------------|-------------------------------------------------|
|-----------------|-------------------------------------------------|

|--------------------------------------------|-------------------------|
|--------------------------------------------|-------------------------|
|--5b~~--5-5-5-5-5-5-5-5-5-5-5-5r-5-5-3-3~~--|--/10\-------------------|
|--------------------------------------------|-------------------5-5h7-|
|--------------------------------------------|----------3-3h5-5/7------|
|--------------------------------------------|-------/5----------------|

----------|----------------------------------------------------------------|
----------|--------------------6/8~~p6-8p6----------5----------------------|
---5-5-7--|-------------5-5h7-7------------5-7------5-----------5----------|
-7--------|-----5-5h7-7-------------------------5/7---7p5~~--5/7-7p5\3-5~~-|
----------|--/7------------------------------------------------------------|
----------|----------------------------------------------------------------|

----------|
----------|
-4-6-4~~--|
----------|
----------|
----------|

Its only love and thats all :)
Tap to rate this tab
 
# A B C D E F G H I J K L M N O P Q R S T U V W X Y Z