Song name
# A B C D E F G H I J K L M N O P Q R S T U V W X Y Z

Bryan Adams - Summer Of 69 Acoustic tab

Ok guys this is very easy to play and is overall a good song. And the thing is this is 
much 100% of it.

Email:- parzan1993@hotmail.com
Email me or add me on msn if you wanna discuss about it.

Legend:-
\../ :- Palm Mute.
x :- muted notes.

Intro:-

e|----------------------|
B|----------------------|
G|-7-77-7-777-7777-777--|
D|-7-77-7-777-7777-777--|
A|-5-55-5-555-5555-555--|
E|-5-55-5-555-5555-555--|
    \../

Verse:-

e|----------------------|----------------------|
B|----------------------|----------------------|
G|-7-77-7-777-7777-777--|----------------------|
D|-7-77-7-777-7777-777--|-7-77-7-777-7777-777--|
A|-5-55-5-555-5555-555--|-7-77-7-777-7777-777--|
E|-5-55-5-555-5555-555--|-5-55-5-555-5555-555--|
    \../                   \../

Chorus:-

e|-2-xx-222-0-00-000-2-xx-222-3-xx-333--|
B|-3-xx-333-2-xx-222-3-xx-333-0-00-000--|
G|-4-xx-444-2-xx-222-2-xx-222-0-00-000--|
D|-4-xx-444-2-xx-222-0-00-000-0-00-000--|   x 2
A|----------0-00-000----------2-xx-222--|
E|----------------------------3-xx-333--|

            Let the A Chord ring.
e|-2-xx-222-0--|
B|-3-xx-333-2--|
G|-4-xx-444-2--|
D|-4-xx-444-2--|
A|----------0--|
E|-------------|

Interlude:-

e|-000-222-333-222-00-2-|-000-000-000-000-00-0-|
B|-333-333-333-333-33-3-|-000-222-333-222-00-2-|
G|-222-222-222-222-22-2-|-222-222-222-222-22-2-|
D|-000-000-000-000-00-0-|-222-222-222-222-22-2-|
A|----------------------|-000-000-000-000-00-0-|
E|----------------------|----------------------|

Bridge:- Let them all ring out loud.

e|-1---------1---------3---------1--------|
B|-1---------3---------5---------3--------|
G|-2---------3---------5---------3--------|
D|-3---------3---------5---------3--------|
A|-3--------------------------------------|
E|-1--------------------------------------|

e|-1---------1---------3---------3--------|
B|-1---------3---------5---------5--------|
G|-2---------3---------5---------5--------|
D|-3---------3---------5---------5--------|
A|-3--------------------------------------|
E|-1--------------------------------------|

Song Structure:-
Intro x 1
Verse x 4
Chorus x 1
Interlude x 1
Verse x 2
Chorus x 1
Interlude x 2
Bridge x 1 (If you want you can add some strums, this is acoustic:P)
Interlude x 4
Here the first two times are played by a piano, and during each chord change we have to 
from D5 to A5.
Then the next two times play the whole interlude along with the piano.
Chorus x 1
Interlude x 8
On the 6th, 7th and 8th time keep fading out the volume slowly.

Ok guys thats it.. Have fun.
Tap to rate this tab
# A B C D E F G H I J K L M N O P Q R S T U V W X Y Z