Song name
# A B C D E F G H I J K L M N O P Q R S T U V W X Y Z

Bryan Adams - Run To You tab

Run to you by Bryan adams!
FULL VERSION without CAPO

CHORDS:
F#m
e|----------|
b|----------|
g|---2------|
d|---4------|
a|---4------|
E|---2------|

A

e|-----------|
b|-----------|
g|----2------|
d|----2------|
a|----4------|
E|----5------|

E


e|-----------|
b|-----------|
g|--1--------|
d|--2--------|
a|--2--------|
E|--0--------|

B


e|----------|
b|----2-----|
g|----4-----|
d|----4-----|
a|----2-----|
E|----------|





By Martincho Chammah
martin2844@gmail.com

Legend:
v --- vibrato
s --- slide
h --- hammer on
p --- pull off
(ph)- pinch harmonic
b --- bend
r --- release



This is how to play it on standard tuning WITHOUT a capo on the second fret
Its in the key of F#m or A major

Main Riff

e|-----------------------------------------------|
b|-----------------------------------------------|
g|-----------------------------------------------|
d|-------2----2----------2----2h3p2--------------|   Repeat until 
a|-----4----4---4------4----1-------1------------|
e|---2----2-------2--5---------------------------|



Cause when it gets to much     I need to feel your touch, Im gonna run to you

     D                      E

Chords for the verse are these:

F#m A  E  B

Play one chord per beat, just listen to the song and you'll get it



Now on to lead guitar arrangments,

Nš1

0:11


|-----------------------------------------------|
|-----------------------------------------------|
|------9b11r9-----------------------------------|
|-------------9b11(ph)r9------------------------|
|-----------------------------------------------|
|-----------------------------------------------|

Nš2
1:07


|-----12b14r12v---------------------------------|
|--------------12b14v---------------------------|
|-----------------------------------------------|
|-----------------------------------------------|
|-----------------------------------------------|
|-----------------------------------------------|


Nš3

1:17

|-----------------------------------------------|
|-----------------------------------------------|
|---------------9----11-------------------------|
|------------11---11----------------------------|
|-----------------------------------------------|
|-----------------------------------------------|

Nš4
1:29


\---------------12bv----------------------------|
|-----------------------------------------------|
|-----------------------------------------------|
|-----------------------------------------------|
|-----------------------------------------------|
|-----------------------------------------------|

Nš5
2:09

(you can barely call this a solo) 

|-----6s7s6----4s5s4----2s3s2----4s5s4----------|
|----------7--------5--------3--------5---------|
|-----------6--------4--------2--------4--------|
|-----------------------------------------------|
|-----------------------------------------------|
|-----------------------------------------------|

|-----6s7s6----4s5s4----2s3s2-------------------|
|----------7--------5--------3------------------|
|-----------6--------4--------2-----------------|
|-----------------------------------------------|
|-----------------------------------------------|
|-----------------------------------------------|
Tap to rate this tab
 
# A B C D E F G H I J K L M N O P Q R S T U V W X Y Z