Song name
# A B C D E F G H I J K L M N O P Q R S T U V W X Y Z

Bryan Adams - Somebody tab

h= hammer on
p= pull off
~= sustain note
b= bend

Intro solo
-----------------------------------------------------------------------------|
-----------------------------------------------------------------------------|
------------7--9--7--9---7h9p7 --------------7--9--7---7h9p7----7h9p7--------|
--7--7--10---------------------10--7--7--10------------------10-------10--7--|
-----------------------------------------------------------------------------|
-----------------------------------------------------------------------------|

----------------------------------------------------------------|
----------------------------------------------------------------|
--------7--9--7-------------------------------------------------|
-7--10-----------12b13b12--10p7---------------------------------|
----------------------------------------------------------------|
----------------------------------------------------------------|

Verse
x3                                              After third time play A chord
\/                                              \\\\\\\\\\\\\\\///////////////
-1---1--1---1-1---1-1---3---3--3---3-3---3-3--|---5--------------------------------|
-1---1--1---1-1---1-1---3---3--3---3-3---3-3--|---5--------------------------------|
-2---2--2---2-2---2-2---4---4--4---4-4---4-4--|---6--------------------------------|
-3---3--3---3-3---3-3---5---5--5---5-5---5-5--|---7--------------------------------|
-3---3--3---3-3---3-3---5---5--5---5-5---5-5--|---7--------------------------------|
-1---1--1---1-1---1-1---3---3--3---3-3---3-3--|---5--------------------------------|

Chorus
x2
\/
-3--3--0--0--0--0--2--2--3--3--0--0--0--0--2--2---------------------------------|
-3--3--1--1--1--1--3--3--3--3--1--1--1--1--3--3---------------------------------|
-0--0--2--2--2--2--2--2--0--0--2--2--2--2--2--2---------------------------------|
-0--0--2--2--0--0--0--0--0--0--0--0--2--2--0--0---------------------------------|
-2--2--0--0--3--3--x--x--2--2--3--3--0--0--x--x---------------------------------|
-3--3--x--x--x--x--x--x--3--3--x--x--x--x--x--x---------------------------------|

Solo
-------------------------------------------------------15b17b15----------------------|
------------------------------8--10--12b13--12--8--10------------15b17b15--13\10--10-|
-7h9p7~~~~~~~~~\1--7h9p7--7h9--------------------------------------------------------|
-------------------------------------------------------------------------------------|
-------------------------------------------------------------------------------------|
-------------------------------------------------------------------------------------|

Bridge
x3                    play after third repetition of the main bridge riff
\/                    \\\\\\\\\\\\\\\\\\\\////////////////////    
---------------------|------------------------------------------------|
---------------------|------------------------------------------------|
-3----3----5----5----|-------7----------------------------------------|
-3----3----5----5----|-------7----------------------------------------|
-1----1----3----3----|-------5----------------------------------------|
---------------------|------------------------------------------------|

The song is played:
0:01 Intro solo (played over of verse riff)
0:21 Verse x2
1:00 Chorus
1:20 Intro solo (played over of verse riff)
1:39 Verse x2
2:19 Chorus
2:48 Solo (played over verse riff)
3:08 Bridge
3:28 Chorus (played through to the end of the song)

Tap to rate this tab
 
# A B C D E F G H I J K L M N O P Q R S T U V W X Y Z