Bryan Adams - Here I Am tab

Here I Am - Bryan Adams - Bare Bones - acoustic version

Tuning: Standard with capo on first fret



CAPO on first fret whole song!!!!
Play it with capo on first fret, I won't put it on this tab but you remmember about capo!.



Intro
E------------------------------------------|
B-----------------------------------4-3----|
G-------5-------------------3--------------|
D-----5---------6---------3---3------------| x3
A---3---------6---6-----1-------1----------|
E-----------4-------4----------------------|

0:13
E---------1-----------------------|
B-----------1---------------------|
G-------3---------5---------------|
D-----3---------5----6------------| x4
A---1---------3------6------------|
E--------------------4------------|


Now play chords the same like in the other tutorial witch contain chords. I won't show 
you 10th time, so
find it on ultimateguitar.com and here is accoustic solo of Here I Am Bare Bones:


Intro before SOLO
1:44

OOOOOOO!!!!! Here I Am , piano and Our Intro before solo, play fast this Chord:

E----3-3-3--|
B----4-4-4--|
G----3-3-3--|
D-----------| x few times fast.
A-----------|
E-----------|


SOLO
1:59

E-----------------------------------------------------------------------6--------6-----------|
B---8-8-8-8-8-8-8~---4-6-6/8-8~---6~---6p8-8-9-8-6-4-6-6/8-9-8-6~---6/8----6-6/8----6/8-6-4--|
G--------------------------------------------------------------------------------------------|
D--------------------------------------------------------------------------------------------|
A--------------------------------------------------------------------------------------------|
E--------------------------------------------------------------------------------------------|


E----------------------------------------------------------------------------------------------|
H---6-6/8-9-8-6--6-----4-4~---4--4--4--4--3p4--4--3p4--4/6--4-3-1----3p4-3-1---------3p4-6-8~--|
G----------------------------------------------------------------------------3-3---------------|
D----------------------------------------------------------------------------------------------|
A----------------------------------------------------------------------------------------------|


E-----------------------------------------------------------------------|
H---8~--8p9-8-6-4-6----3p4-4--3p4-4---6/8-6-4-6~----4-4--softly--4-4~-4-|
G-----------------------------------------------------------------------|
D-----------------------------------------------------------------------|
A-----------------------------------------------------------------------|

Solo parts without chords Here I Am - Bare Bones by Mateoz555
Tap to rate this tab
 
# A B C D E F G H I J K L M N O P Q R S T U V W X Y Z