Song name
# A B C D E F G H I J K L M N O P Q R S T U V W X Y Z

Bryan Adams - Run To You tab

You start with your capo on the 2nd fret.
Chords:
Em    : 022000
G     : 320033 or 3x0033
D     : xx0232
A     : x02220
C     : x32010

Intro + Verse:
e|--------------------------|
B|--------------------------|
G|--------------------------|
D|----0----0-------0----0---|
A|---2----2-2-----2-2--4-0--|
E|--0----0---0---3----5-----|

Pre-Chorus:
    C    D  D
e|--0----2--2--|
B|--1----3--3--|
G|--0----2--2--|
D|--2----0--0--|
A|--3----x--x--|
E|--x----x--x--|

Chorus:
   Em    G    D    A
e|--0----3----2----0--|
B|--0----3----3----2--|
G|--0----0----2----2--|
D|--2----0----0----2--|
A|--2----2----x----0--|
E|--0----3----x----x--|

Solo:
e|----------------------------------------|
B|--9/10-9-----7/8-7----5/6-5----7/8-7----|
G|--------9---------7--------5--------7---|    2x
D|---------9---------7--------5--------7--|
A|----------------------------------------|
E|----------------------------------------|

Song:
-Intro
-Verse
-Pre-Chorus
-Chorus
-Intro
-Verse
-Pre-Chorus
-Chorus
-Solo
-Chorus/Outro
Tap to rate this tab
 
# A B C D E F G H I J K L M N O P Q R S T U V W X Y Z