Song name
# A B C D E F G H I J K L M N O P Q R S T U V W X Y Z

Bryan Adams - One Night Love Affair tab

I tried my best to put the two guitar parts in time with each other as I could.
The intro guitar parts are not in timing with each other. 
The solo is about 97% correct.


Tuning: Standard Tuning

1st guitar
e|----------------------------------------------------|
B|----------------------------------------------------|
G|4-4---9-9---4-4---9-9-------4-4---9-9---4-4---9-9---|
D|4-4---9-9---4-4---9-9-------4-4---9-9---4-4---9-9---|
A|2-2---7-7---2-2---7-7-------2-2---7-7---2-2---7-7---|
E|------------------------12\-------------------------|

2nd Guitar
e|--2-----2-----2-----2----2-----2---2-----2-----2-----2----2----2--2-|
B|0---0-----0-----0-----0----0-----0---0-----0-----0-----0----0-----4-|
G|------4-----4-----4----------4---------4-----4-----4----------4---4-|
D|--------------------------------------------------------------------|
A|--------------------------------------------------------------------|
E|--------------------------------------------------------------------|

Verse:

1st guitar
e|------------------------------------------------------------|
B|------------------------------------------------------------|
G|4-4---9-9---4-4---9-9---4-4---------------------------------|
D|4-4---9-9---4-4---9-9---4-4--6-6--4------------2------------|
A|2-2---7-7---2-2---7-7---2-2--6-6--4------------2------------|
E|-----------------------------4-4--2------------0------------|

2nd guitar
e|----------------------------------2-----2-------0------0-----|
B|------------------------------------2-----2-------0------0---|
G|--------------------------------------3-----3--------1-----1-|
D|-------------------------------------------------------------|
A|-------------------------------------------------------------|
E|-------------------------------------------------------------|

1st guitar
e|-----------------------------------------------------------------|
B|-----------------------------------------------------------------|
G|4-4---------9-9---------4-4---------9-9-------4-4----------------|
D|4-4---------9-9---------4-4---------9-9-------4-4------------6-6-|
A|2-2---------7-7---------2-2---------7-7-------2-2------------6-6-|
E|-------------------------------------------------------------4-4-|

2nd guitar
e|--2-----2-----2-----2----2-----2---2-----2-----2-----2----2----2---2-|
B|0---0-----0-----0-----0----0-----0---0-----0-----0-----0----0----0---|
G|------4-----4-----4----------4---------4-----4-----4----------4------|
D|---------------------------------------------------------------------|
A|---------------------------------------------------------------------|
E|---------------------------------------------------------------------|

1st guitar
e|-----------------------------------------|
B|-----------------------------------------|
G|-----------------------------------------|
D|4-------------2--------------------------|
A|4-------------2--------------------------|
E|2-------------0--------------------------|

2nd guitar
e|-2-----2--------0-----0----------------|
B|---2-----2--------0-----0--------------|
G|-----3-----3--------1-----1------------|
D|---------------------------------------|
A|---------------------------------------|
E|---------------------------------------|


SOLO:

e|------------------------------------------------------------------|
B|----5-4----------5-4---------5-4----------------------------------|
G|4-6------4---4-6-----4---4-6-----6-4-4----4--6-6---4--6--5hbr-6-4-|
D|----------------------------------------6-------------------------|
A|------------------------------------------------------------------|
E|------------------------------------------------------------------|

e|---------------------------------------------------------------|
B|12--14--16\-9---12--14--16\-9--12fbr--12fbr-12-12--12fbr-12-12-|
G|---------------------------------------------------------------|
D|---------------------------------------------------------------|
A|---------------------------------------------------------------|
E|---------------------------------------------------------------|

e|--------------------------------------12--14fb--14-|
B|12--12-11-9----12-11-9----12-11-9------------------|
G|------------11---------11---------11---------------|
D|---------------------------------------------------|
A|---------------------------------------------------|
E|---------------------------------------------------|

Please rate and Comment

************************************

| /   slide up
| \   slide down
| h   hammer-on
| p   pull-off
| ~   vibrato
| +   harmonic
| x   Mute note
| b   Bend
| pb  Pre-bend
| br  Bend release
| pbr Pre-bend release
| brb Bend release bend

************************************
  
Tap to rate this tab
# A B C D E F G H I J K L M N O P Q R S T U V W X Y Z