Song name
# A B C D E F G H I J K L M N O P Q R S T U V W X Y Z

Bryan Adams - Walk On By tab

Bryan Adams - Walk on by - Bare Bones

Tuning: Drop one fret, only string A.



E-----------------------------------------------| 
B-------2-------2------------2-------2----------| 
G-----1-------1---1--------1-------1---1--------| 
D---0-------------------------------------------| repeat
A------------------------2----------------------| 
E-----------2-------2-----------2--------2------|


bridge
old enough to know why

E-------------------------------------------------| 
B-----------2------2---2----2--------2-----2---2--| 
G---------1------1---1----1--------1-----1---1----| 
D-------------------------------------------------| 
A-------2------2--------2------1-2-----2----------| 
E-------------------------------------------------|




E-----------------------------------------------| 
B-------2-------2------------2-------2----------| 
G-----1-------1---1--------1-------1---1--------| 
D---0-------------------------------------------| repeat
A------------------------2----------------------| 
E-----------2-------2-----------2--------2------|

Tap to rate this tab
# A B C D E F G H I J K L M N O P Q R S T U V W X Y Z