Song name
# A B C D E F G H I J K L M N O P Q R S T U V W X Y Z

Bryan Adams - Heaven tab

This is my first tab, The outro has a lot of bends so you might have to listen to
the track to get it right. This is Correct. Hope you enjoy.

^ = full-step bend
~ = vibrato


1st Solo

e------------------------------------------------------5-----------------|
B---5h8---8^(10) 8^(10)------8^(10)----8r5----------------8--------------|
G----------------------------------------------7^(9)---------7^(9)--5----|
D----------------------------------------------------------------------7-|
A------------------------------------------------------------------------|
E------------------------------------------------------------------------|


-----------5--------------5--------8^(10)--8--7--------------------------|
---------5-------8^(10)------5------------------8~-----------------------|
--7^(9)------------------------------------------------------------------|
-------------------------------------------------------------------------|
-------------------------------------------------------------------------|
-------------------------------------------------------------------------|



Outro

------------------------------------------------------------------------|
-------20~--------------------------------------------------------------|
-17h19-------17~~-----------17h19^^----17h19r17-------------------------|
---------------------17h19-----------------------19---------------------|
------------------------------------------------------------------------|
------------------------------------------------------------------------|


------------------------------------------------------------------------|
-------------20-----20^--20--20^^^^----20---17--------------------------|
-----17--19-------------------------------------------------------------|
--19--------------------------------------------------------------------|
------------------------------------------------------------------------|
------------------------------------------------------------------------|


------------------------------------------------------------------------|
---------17--18---17-------------20^r17----20^^r20-----20r17---20^r20---|
--17h19--------------17-------------------------------------------------|
------------------------------------------------------------------------|
------------------------------------------------------------------------|
------------------------------------------------------------------------|


-------17-----------------------------------------------------------------|
--20------17----20^r20---20--17-------------------------------------------|
---------------------------------19--17-----------------------------------|
-----------------------------------------17-------------------------------|
--------------------------------------------------------------------------|
--------------------------------------------------------------------------|


----------5---------------------------------------8--7--5------------------|
-------5-----8^^----8--6--5------5-----------5h6-----------8^^-------------|
--7^-------------------------7------5---5--7--------------------5h7r5--4-5-|
---------------------------------------------------------------------------|
---------------------------------------------------------------------------|
---------------------------------------------------------------------------|
Tap to rate this tab
# A B C D E F G H I J K L M N O P Q R S T U V W X Y Z