Song name
# A B C D E F G H I J K L M N O P Q R S T U V W X Y Z

Bryan Adams - Nothing Ive Ever Known tab

This is the base of the instrumental part in Spirit

Tuning: Standard

e||-----------------------|----------------------------|--------------------|
B||----5-4-5-------5-4-5--|-----5-4-5-------7-------9--|----9-7-9-----9-7-9-|
G||-----------------------|----------------------------|--------------------|
D||-6-----------6---------|--6----------6-------6------|-9---------9--------|
A||-----------------------|----------------------------|--------------------|
E||-----------------------|----------------------------|--------------------|
 

|--------------------------|-------------------------|----------------------|
|----9-7-9-------10------7-|-----12-10-12----4----5--|-5-7-9-10--/12-10-10-9|
|--------------------------|-------------------------|----------------------|
|-9----------9-------9-----|-12----------------------|----------------------|
|--------------------------|-------------------------|----------------------|
|--------------------------|-------------------------|----------------------|


|-----------------------|------------------------|----------------------|
|----5-4-5-------5-4-5--|-5-7-9-10--7--5---9--7--|----5-7-9------9-7-9--|
|-----------------------|------------------------|----------------------|
|-6-----------6---------|------------------------|-9----------9---------|
|-----------------------|------------------------|----------------------|
|-----------------------|------------------------|----------------------|

                                               
|------------------| |-----------------------------|
|--9-10-7---7-5-7--| |----9-7-5-------5-4-5--7--5--|x2
|------------------| |-----------------------------|
|------------------| |-9----------6----------------|
|------------------| |-----------------------------|
|------------------| |-----------------------------|
Tap to rate this tab
# A B C D E F G H I J K L M N O P Q R S T U V W X Y Z