Song name
# A B C D E F G H I J K L M N O P Q R S T U V W X Y Z

Bryan Adams - Sound The Bugle tab

No capo
Standard  tuning

  E |--3--2--7--0-------------------------------------|
  B |------------------3--5--8--3--1--5--0------------|
  G |-------------------------------------------2-----|
  A |-------------------------------------------------|
  E |-------------------------------------------------|

  E |--3--2--7--0-------------------------------------|
  B |------------------3--5--8--3--1--0--3------------|
  G |-------------------------------------------2-----|
  A |-------------------------------------------------|
  E |-------------------------------------------------|
Tap to rate this tab
# A B C D E F G H I J K L M N O P Q R S T U V W X Y Z