Song name
# A B C D E F G H I J K L M N O P Q R S T U V W X Y Z

Bryan Adams - Give Me Your Love tab

Give Me Your Love (Solo)
Bryan Adams

Hello people, my name is Varad. I did not find this solo anywhere so I decided to begin
my tabbing career with this simple yet beautiful song. Any views, suggestions, requests,
complaints or anything at all, all will be favoured at bagofchips@coolgoose.com.

    Bb             Gm          Eb               Dm          Cm          F               
E|-------------------------------------------------------------------------------------|
B|---------------8-8"--11\8------------------------------------------------------------|
G|-----------10----------------10^12^10-----------------------------------------10-12--|
D|--8----8"------------------------------12-10--10"--10r--8-10----------8-10/12--------|
A|--------------------------------------------------------------8^10-------------------|
E|-------------------------------------------------------------------------------------|

    Bb                      Gm                         Eb           Dm
E|-----------------------------------------------------13"--13r-10---------------------|
B|--13"--13r-11-13"--13r-11-13"-13-11--10^11^10---------------------13"-13"--13r-11----|
G|-----------------------------------------------12------------------------------------|
D|-------------------------------------------------------------------------------------|
A|-------------------------------------------------------------------------------------|
E|-------------------------------------------------------------------------------------|

    Cm        F         G       
E|--10---11---13---15---17"----|
B|--13---15---16---18---18"----|
G|-----------------------------|
D|-----------------------------|
A|-----------------------------|
E|-----------------------------|

One of the earliest offerings of BA (I'm a huge fan) this is a nice song and the ticket
to get my name posted on the net (look MOM, I'm famous). Enjoy!
Tap to rate this tab
# A B C D E F G H I J K L M N O P Q R S T U V W X Y Z