Song name
# A B C D E F G H I J K L M N O P Q R S T U V W X Y Z

Bryan Adams - Kids Wanna Rock tab

kids Wanna Rock by Bryan Adams
-----------------------------

ok, so first of all, i have to say that this is an awesome song. LISTEN TO IT!!! it's awesome.

standard tuning

Starts on the and of 1
e--0-0---0-------------------|
B----3b-r0-0-----------------|
G----------0-2---------------|
D----------0-2-2-2-2-2-2-2-2-|
A------------0-2-2-2-2-2-2-2-|
E--------------0-0-0-0-0-0-0-|
               . .   . .

This song sounds way more complicated then it is. Start off slow, and then gradually increase.

----------------
Mini Legend
b-bend
.-palm muted
r-release bend
----------------

thanks! please comment
Tap to rate this tab
 
# A B C D E F G H I J K L M N O P Q R S T U V W X Y Z