Song name
# A B C D E F G H I J K L M N O P Q R S T U V W X Y Z

Bryan Adams - Im Not The Man You Think I Am tab

Help us improve GuitareTab! Take a short survey!
     Am       C+      Am7    Am/F#       F           E
|------0-------0-------0-------0---|--------1---|------0--|
|----1---1---1---1---1---1---1---1-|------1---1-|----0---0|
|--2-------1-------0---------------|------------|---------|
|--------------------------4-------|--2-3-------|--2------|
|----------------------------------|------------|---------|
|----------------------------------|------------|---------|

         Am(V)              Dm        
|--------------5---|--------------5---|
|------6---------6-|------5---------5-|
|----7---7---7-----|----5---5---5-----|
|----------7-------|----------7-------|
|--5---------------|--7---------------|
|------------------|------------------|

 
Am       C+      Am7    Am/F#
I'm not the man you think I am
F    F              E   E     
I'm not that kind of guy
Am       C+      Am7    Am/F#
beneath this sleek exterior
F    F                     E   E
there's less than meets the eye

    Am(V)  Am(V)      Dm       Dm                  
I'm just what you've been looking for
    Am(V)  Am(V)         E    E
your wildest dream come true
Am       C+      Am7    Am/F#
I'm not the man you think I am
F           E       Am
But I'm the man for you

I'm on important business
I'm late for my premiere
I'm doing you a favor
Just by being here

Surely you can buy a drink
for someone so renowned
I'm not the man you think I am
but I'm the man you've found

I'm burning with indifference
I'm sleeping with desire
I'm selling snow to Eskimos
I'm preaching to the choir

My past is catching up to me
my chips are coming due
I'm not the man you think I am
But I'm the man for you
Related for Im Not The Man You Think I Am tab