Song name
# A B C D E F G H I J K L M N O P Q R S T U V W X Y Z

Bryan And Katie Torwalt - Nothing Holding Me Back tab

pretty simple song when you get the picking right. I think this is the right tab but if 
you feel there are any changes to be made please feel free to do what you want. it is 
you playing it after all.  ;) ;) ;)

-------------------------------------------------------------

Intro:

E-------------------------------------------------------------------|
B---8-------3-------5--------1--------0-----------------------------|
G------0--------0--------0--------0----------0------------0---------|
D-----------------------------------------0-----0------0-----0------|
A---7-------2-------3--------0--------------------------------------|
E-------------------------------------3-----------------------------|



verses:
Note: the chords are pretty straight forward and this pattern is repeated.

---------------------------------------------------------------------|
---------3-----------------------------------------------------------|
--0--------------------0----------------0-------------0--------------|
-----0------0-------0-----0----0----0------0------0------0-----------|
--2--------------3---------------------------------------------------|
-------------------------------3-------------------------------------|


chorus
when I play the chorus I like to just strum out the chords and then pick the strings on 
the way up.

the chords are: Em C  G



Bridge chords:  C  G  D
Tap to rate this tab
# A B C D E F G H I J K L M N O P Q R S T U V W X Y Z