Bryan Greenberg - Lonely World chords

Highlighted       Show chord diagrams
-----------------------------------------------------------------------------
			     LONELY WORLD - Bryan Greenberg
-----------------------------------------------------------------------------
Tabbed by: Tomas Wright
Email: tomaswright@hotmail.co.uk

Tuning: Standard - Capo on 2

Intro/Verse riff (approx strumming pattern)

     C    C/B Am7
e|---0-0-0-0-0-0-0-0-0-0--|
B|---1-1-1-1-1-1-1-1-1-1--|
G|---0-0-0-0-0-0-0-0-0-0--|
D|---2-2-0-2-0-2-0-2-0-2--|
A|---3-3-2-0-0-0-0-0-0-0--|
E|------------------------|

C	      C/B
Such a lonely boy
Am7				C C/B Am7
Couldn't find the joy within
C	      C/B
Such a lonely girl
Am7					C C/B Am7
Such a lonely world we're living in
C	   C/B    Am7
I watch it all go by
C     C/B  C Fmaj7        C C/B Am
Can't find a tear to cry
Fmaj7     C C/B Am
a tear to cry, 
Fmaj7     C C/B Am7 C C/B Am7
a tear to cry

C       C/B		 Am7
It's so obvious how they need each other
C	         C/B		     Am7
Wanting, bleeding, hurting, but they keep it covered
C	  C/B     Am7
Till it's one big lie
C          C/B        C  Fmaj7      C C/B Am
Can't say hello cause they fear goodbyes
 Fmaj7		  C    C/B Am
Well they fear goodbyes, 
Fmaj7         C C/B Am7
they fear goodbyes

G            	      		   Fmaj7
He don't say much when there ain't much to say
Am7			       Em
She waits for his response she waits all day
G			      Fmaj7
The world keeps spinning in a silent scream
Am7			   Em    G   C C/B Am7 C C/B Am7
And I keep waking in these dying dreams

C		    C/B  	  Am7
I asked her for the time she said my timing was off
      C		    C/B  	    Am7
But I got this pain inside she said it's all you got
C	         C/B    Am7
I got this feeling   that life is passing me by
C		   C/B    C  Fmaj7	C C/B Am7
I'm a couple years late but I'm here tonight, 
Fmaj7 	    C C/B Am
I'm here tonight, 
Fmaj7	      C C/B Am
well I'm here tonight

G            	      		   Fmaj7
He don't say much when there ain't much to say
Am7			       Em
She waits for his response she waits all day
G			      Fmaj7
The world keeps spinning in a silent scream
Am7			   Em    G  
And I keep waking in these dying dreams

Strumming pattern not shown but it follows this kind of sequence

e|-0-0-0-3-0-3-5-0-3-0-0-0-0-3-5-0-3-0-0-0-0-3-5-0-3-0-0-0-0-3-5-7-8-7-8-|
B|-1-3-1-1-1-1-3-1-1-1-1-3-1-1-3-1-1-1-1-3-1-1-3-1-1-1-1-3-1-1-3-5-5-5-5-|
G|-0-0-0-0-0-0-x-0-0-0-0-0-0-0-x-0-0-0-0-0-0-0-x-0-0-0-0-0-0-0-x-0-0-0-0-|
D|-2-2-2-2-2-2-0-2-2-2-2-2-2-2-0-2-2-2-2-2-2-2-0-2-2-2-2-2-2-2-0-0-0-0-0-|
A|-3-0-0-0-0-0-0-3-3-3-0-0-0-0-0-3-3-3-0-0-0-0-0-3-3-3-0-0-0-0-0-0-0-0-0-|
E|-----------------------------------------------------------------------|

C	      C/B Am7
Such a lonely boy
C	      C/B Am7
Such a lonely girl
C	    C/B         Am7
It's such a lonely world

End on C
Tap to rate this tab
 
# A B C D E F G H I J K L M N O P Q R S T U V W X Y Z