Song name
# A B C D E F G H I J K L M N O P Q R S T U V W X Y Z

Bryan John Appleby - The Words Of The Revelator tab

The Words of the Revelator
Bryan John Appleby

standard tuning
capo 4

Em:  022000
G:   320033
C/G: 332010
Am:  002210
Open:000000
E7*: 021000
D:   200212
Em7: 020000


Verse 1:
   Em                  G
e----------------------------------------------------|
B----------------------------------------------------|
G--0----0----0----0----0----0----0----0--------------|
D--2----2----2----2----0----0----0----0--------------|
A----------------------------------------------------|
E-----0----0----0----0----3----3----3----3-----------|


Em            G
I have come into your house 
Em                                                   G
You say thereís something I should know by now and I vow to hear you out 
Em               G
But as you speak, how I feel the sting 
Em                                      G
Like the hackles on a dogís back I rise up to meet the

C/G                     Am            Em
Wordss you spoke in the middle of the night 
G                      Em        C/G
They fall heavy like a hammer on my mind 
            C/G                               Em       Am
You are the light in the darkness, youíre the fire on the vine 

E7*
Oooh

Riff 1 (2x):
e---------------------------------------|
B----0-----0-----0-----0-----1----------|
G----0-----0-----0-----0-----0----------|
D----2-----2-----0-----0-----2----------|
A----2-----2-----0-----2-----3----------|
E----0-----0-----3-----3-----3----------|

Em (muted) G
Oh my son, I have known your ways 
Em                                             G
But Iím the gale thatíll rattle your gate; you shudder, I make you shake 
Em                     G
You will find what you did not seek 
Em                    G (no longer muted)
A road less narrow, a way not steep 

      D
Oh my child
          Em       C/G
Donít you lose your place 
            D
Remember my table 
   Am       Em
Remember my face

        C/G                      Am            Em
And the things I told you in the middle of the night 
G                      Em        C/G
They fall heavy like a hammer on your mind 
         C/G                            Em         Am
I am the light in the darkness, Iím the fire on the vine 
E7*
Oooh

Riff 1 (2x)

Riff 2 (2x):
e---------------------------------------|
B----1-----1-----0-----0-----1----------|
G----2-----2-----0-----0-----0----------|
D----2-----2-----0-----0-----2----------|
A----0-----0-----0-----2-----3----------|
E----0-----0-----3-----3-----3----------|

Em  G      C/G
You turn away 
Em  G      C/G
Iím left alone 
Am   G      C/G
Then came a sign 
Am            G    C/G
Then came the Revelation 

           Em                       D
And I said you, you will not dig a hole in me 
                   Am
You will not chop down my tree 
                     C/G
Or hold me under the water 

       Em                       D
No and you, you will not dig a hole in me 
                   Am
You will not chop down my tree 
                     C/G
Or hold me under the water
Tap to rate this tab
# A B C D E F G H I J K L M N O P Q R S T U V W X Y Z