Song name
# A B C D E F G H I J K L M N O P Q R S T U V W X Y Z

Bryan John Appleby - And The Revelation tab

...And the Revelation
Bryan John Appleby
This is taken from Bryan's Chapel session and his Classroom session.

Standard tuning
capo 4

Intro (this is also how C/G and Em are played in the first verse):
    C/G                                 Em
e---0---0---0---0---0---0---0---0---0---0---0-------------------|
B---1---1---1---1---1---1---1---1---0---0---0-------------------|
G---0---0---0---0---0---0---0---0---0---0---0-------------------|
D---2---2---2---2---0---2---2---2---2---2---2---------------0---|
A---3---3---3---3---3---3---3---3---3---2---2-------------------|
E---3---3---3---3---3---3---3---3---3---0---0---0---2---3-------|


        C/G                 Em                                   D  Am
I saw a white-haired child, staring out through hollow gray eyes
      C/G                         Em                             D  Am
I saw men that come to early ends, men who flicker, dim, and die 
        C/G                       Em                            D  Am
I saw a kerosene skyline from the suburbs of the city on a hill
            C/G                         Em                                      D  Am
I heard the clatter of the coin and the yawning of the few that have their fill


        C/G                   Em
And the sun, it is a blister, rising like the dead 
          D                              Am
I drag my shadow behind me, and I drag my body to the edge of my bed 
         C/G                         Em
With my palms pressed to my eyes, I pray this one last time 
          D                                        Am
If you’re someone else I might love you still, but as it is we’re done 


       C/G                     Em
Oh and you, you will not dig a hole in me
                   D
You will not chop down my tree 
                      Am
Or hold me under the water 
        C/G                    Em
No and you, you will not dig a hole in me 
                  D
You will not chop down my tree 
                     Am
Or hold me under the water
                  C/G
Hold me under the water
                  Em
Hold me under the water
                  D
Hold me under the water
                  Am
Hold me under the water

Outro (still singing "Hold me under the water"):
    Cmaj7                   Em                      
e----------------------------------------------------|
B---0--------0--------0-----0--------0--------0------|
G------0--------0--------0-----0--------0--------0---|
D---------2--------2--------------2--------2---------|
A---3-----------------------2------------------------|
E----------------------------------------------------|

    Dsus2                   Am
e---0--------0--------0-----0------------------------|
B------3--------3--------3--1------------------------|
G---------2--------2--------2------------------------|
D---0-----------------------2------------------------|
A---------------------------0------------------------|
E---------------------------0------------------------|
Tap to rate this tab
# A B C D E F G H I J K L M N O P Q R S T U V W X Y Z