Song name
# A B C D E F G H I J K L M N O P Q R S T U V W X Y Z

Bryan White - God Gave Me You tab

Tabbed by: John Paul Chang
Email add: jpc_enrera_lovegod@yahoo.com
(if you find any mistake, i accept comments, suggestions and etc. just email me)

GOD GAVE ME YOU - Bryan White

Intro: (Drums with strumming)

e------------------------------|
B----6-7-7s9-7-6-4s6-4-2s4-2---|
G------------------------------|
D------------------------------|(--4h6--)
A------------------------------|
E------------------------------|

e------------------------------|
B----6-7-7s9-7-6-4s6-4-2-------|
G------------------------------|
D------------------------------|
A------------------------------|
E------------------------------|


After First Chorus:

e------------------------------|
B----6-7-7/9-7-6-4/6-4-2/4-2---|
G------------------------------|
D------------------------------|
A------------------------------|
E------------------------------|

After last Chorus:

e------------------------------|
B----8-9-9/11-9-8-6/8-6-4/6-4--|
G------------------------------|(--1h3--)
D------------------------------|
A------------------------------|
E------------------------------|

e------------------------------|
B----8-9-9/11-9-8-6/8-6-4------|
G------------------------------|
D------------------------------|
A------------------------------|
E------------------------------|


e------------------------------|
B------------------------------|
G----5---3---------------------|
D------5-----------------------|
A------------------------------|
E------------------------------|


Legend:
/ -slide up
h -hammer-on

Thank You! =)
Tap to rate this tab
# A B C D E F G H I J K L M N O P Q R S T U V W X Y Z