Song name
# A B C D E F G H I J K L M N O P Q R S T U V W X Y Z

Bryant Oden - The Duck Song tab

This tab is for people who cannot play chords. This is a simple tab for the duck song

e|------------------|
B|------------------|
G|------------------|
D|------------------|   X4
A|-5----------------|
E|-3----------------|

e|------------------|
B|------------------|
G|------------------|
D|-5----------------|   X3
A|-3----------------|
E|------------------|

e|------------------|
B|------------------|
G|------------------|
D|-7----------------|   X3
A|-5----------------|
E|------------------

And thats it. Just listen to the song to get the rhythm right
Tap to rate this tab
# A B C D E F G H I J K L M N O P Q R S T U V W X Y Z