Song name
# A B C D E F G H I J K L M N O P Q R S T U V W X Y Z

Bryn Terfel - Hen Wlad Fy Nhadau tab

Help us improve GuitareTab! Take a short survey!
------------------------------------------------------------|
------------------------------------------------------------|
------------------------------------------------------------|
-------------------7-7-4-6-7---4-2--------------------------|
--0-4-2-0-7-5-4--------------------4-0-0---0-4-2-2-2--------|
-----------------------------------------4------------------|

------------------------------------------------------------|
----------------------4-6-7-7-4-6-7--4-2--------------------|
--4-6-7-7-4-6-7-7------------------------4-0-2-4-2-0--------|
------------------------------------------------------------|

CYMRU AM BYTH!
Related for Hen Wlad Fy Nhadau tab