Song name
# A B C D E F G H I J K L M N O P Q R S T U V W X Y Z

Bse - Dynamite tab

song:Dynamite
artist:B.S.E
album:N/A

intro,chorus:bass plays same tab

e------------------------------------------------------------------------|
b------------------------------------------------------------------------|
g-------------------4-4-4-4-4-4-4-4-------------------6-6-6-6-6-6-6-6----|
d--4-4-4-4-4-4-4-4--4-4-4-4-4-4-4-4--6-6-6-6-6-6-6-6--6-6-6-6-6-6-6-6----|
a--4-4-4-4-4-4-4-4--2-2-2-2-2-2-2-2--6-6-6-6-6-6-6-6--4-4-4-4-4-4-4-4----|
e--2-2-2-2-2-2-2-2-------------------4-4-4-4-4-4-4-4---------------------|

verses:

GUITAR FILL 1:			BASS LINE:

e-----------        --------------------------------------|
b-----------        ------------------3-5-6-5-------------|
g------2-4--        -3-5-4----5-7-6-----------5-----------|
d--4-4-2-4--        -------4--------6-----------5-0-------|
a--4-4-0-2------------------------------------------------|
e--2-2----------------------------------------------------|

GUITAR FILL 2:

e-----------|
b-----------|
g-4-2-------|
d-4-2--4----|
a-2-0--4----|
e------2----|


NOTES: guitar fills when bass plays first set.
ORDER: drum solo,intro 4x, verse,chorus,verse,chorus,verse,chorus,
Tap to rate this tab
 
# A B C D E F G H I J K L M N O P Q R S T U V W X Y Z